0
SECTION
2
HEADER
9
$EXTMAX
10
74.930000
20
27.305000
9
$EXTMIN
10
-41.910000
20
-15.875000
0
ENDSEC
0
SECTION
2
TABLES
0
TABLE
2
LAYER
70
100
0
LAYER
2
0_FLAECHEUNTEN
62
1
6
CONTINUOUS
0
LAYER
2
1_LOESCHUNTEN
62
255
6
CONTINUOUS
0
LAYER
2
2_KUPFERUNTEN
62
1
6
CONTINUOUS
0
LAYER
2
3_GOLDUNTEN
62
14
6
CONTINUOUS
0
LAYER
2
4_LOETSTOPUNTEN
62
94
6
CONTINUOUS
0
LAYER
2
5_LOETPASTEUNTEN
62
250
6
CONTINUOUS
0
LAYER
2
6_KLEBERUNTEN
62
214
6
CONTINUOUS
0
LAYER
2
7_BESTUECKUNGUNTEN
62
4
6
CONTINUOUS
0
LAYER
2
8_FLAECHEINNEN
62
94
6
CONTINUOUS
0
LAYER
2
9_LOESCHINNEN
62
250
6
CONTINUOUS
0
LAYER
2
10_SONSTIGE
62
94
6
CONTINUOUS
0
LAYER
2
11_FLAECHEINNEN
62
14
6
CONTINUOUS
0
LAYER
2
12_LOESCHINNEN
62
250
6
CONTINUOUS
0
LAYER
2
13_SONSTIGE
62
14
6
CONTINUOUS
0
LAYER
2
14_FLAECHEOBEN
62
174
6
CONTINUOUS
0
LAYER
2
15_LOESCHOBEN
62
255
6
CONTINUOUS
0
LAYER
2
16_KUPFEROBEN
62
174
6
CONTINUOUS
0
LAYER
2
17_GOLDOBEN
62
14
6
CONTINUOUS
0
LAYER
2
18_LOETSTOPOBEN
62
94
6
CONTINUOUS
0
LAYER
2
19_LOETPASTEOBEN
62
250
6
CONTINUOUS
0
LAYER
2
20_KLEBEROBEN
62
214
6
CONTINUOUS
0
LAYER
2
21_BESTUECKUNGOBEN
62
250
6
CONTINUOUS
0
LAYER
2
22_BEMASSUNG
62
253
6
CONTINUOUS
0
LAYER
2
23_UMRISS
62
11
6
CONTINUOUS
0
LAYER
2
24_BOHRLOECHER
62
14
6
CONTINUOUS
0
LAYER
2
25_FRAESEN
62
14
6
CONTINUOUS
0
LAYER
2
26_LOETPUNKTNUMMERN
62
250
6
CONTINUOUS
0
LAYER
2
27_LUFTLINIE
62
94
6
CONTINUOUS
0
LAYER
2
28_SONSTIGE
62
4
6
CONTINUOUS
0
LAYER
2
29_SONSTIGE
62
4
6
CONTINUOUS
0
LAYER
2
30_SONSTIGE
62
4
6
CONTINUOUS
0
LAYER
2
31_SONSTIGE
62
4
6
CONTINUOUS
0
LAYER
2
32_SONSTIGE
62
4
6
CONTINUOUS
0
LAYER
2
33_SONSTIGE
62
4
6
CONTINUOUS
0
LAYER
2
34_SONSTIGE
62
4
6
CONTINUOUS
0
LAYER
2
35_SONSTIGE
62
4
6
CONTINUOUS
0
LAYER
2
36_SONSTIGE
62
4
6
CONTINUOUS
0
LAYER
2
37_SONSTIGE
62
4
6
CONTINUOUS
0
LAYER
2
38_SONSTIGE
62
4
6
CONTINUOUS
0
LAYER
2
39_SONSTIGE
62
4
6
CONTINUOUS
0
LAYER
2
40_SONSTIGE
62
4
6
CONTINUOUS
0
LAYER
2
41_SONSTIGE
62
4
6
CONTINUOUS
0
LAYER
2
42_SONSTIGE
62
4
6
CONTINUOUS
0
LAYER
2
43_SONSTIGE
62
4
6
CONTINUOUS
0
LAYER
2
44_SONSTIGE
62
4
6
CONTINUOUS
0
LAYER
2
45_SONSTIGE
62
4
6
CONTINUOUS
0
LAYER
2
46_SONSTIGE
62
4
6
CONTINUOUS
0
LAYER
2
47_SONSTIGE
62
4
6
CONTINUOUS
0
LAYER
2
48_SONSTIGE
62
4
6
CONTINUOUS
0
LAYER
2
49_SONSTIGE
62
4
6
CONTINUOUS
0
LAYER
2
50_SONSTIGE
62
4
6
CONTINUOUS
0
LAYER
2
51_SONSTIGE
62
4
6
CONTINUOUS
0
LAYER
2
52_SONSTIGE
62
4
6
CONTINUOUS
0
LAYER
2
53_SONSTIGE
62
4
6
CONTINUOUS
0
LAYER
2
54_SONSTIGE
62
4
6
CONTINUOUS
0
LAYER
2
55_SONSTIGE
62
4
6
CONTINUOUS
0
LAYER
2
56_SONSTIGE
62
4
6
CONTINUOUS
0
LAYER
2
57_SONSTIGE
62
4
6
CONTINUOUS
0
LAYER
2
58_SONSTIGE
62
4
6
CONTINUOUS
0
LAYER
2
59_SONSTIGE
62
4
6
CONTINUOUS
0
LAYER
2
60_SONSTIGE
62
4
6
CONTINUOUS
0
LAYER
2
61_SONSTIGE
62
4
6
CONTINUOUS
0
LAYER
2
62_SONSTIGE
62
4
6
CONTINUOUS
0
LAYER
2
63_SONSTIGE
62
4
6
CONTINUOUS
0
LAYER
2
64_SONSTIGE
62
4
6
CONTINUOUS
0
LAYER
2
65_SONSTIGE
62
4
6
CONTINUOUS
0
LAYER
2
66_SONSTIGE
62
4
6
CONTINUOUS
0
LAYER
2
67_SONSTIGE
62
4
6
CONTINUOUS
0
LAYER
2
68_SONSTIGE
62
4
6
CONTINUOUS
0
LAYER
2
69_SONSTIGE
62
4
6
CONTINUOUS
0
LAYER
2
70_SONSTIGE
62
4
6
CONTINUOUS
0
LAYER
2
71_SONSTIGE
62
4
6
CONTINUOUS
0
LAYER
2
72_SONSTIGE
62
4
6
CONTINUOUS
0
LAYER
2
73_SONSTIGE
62
4
6
CONTINUOUS
0
LAYER
2
74_SONSTIGE
62
4
6
CONTINUOUS
0
LAYER
2
75_SONSTIGE
62
4
6
CONTINUOUS
0
LAYER
2
76_SONSTIGE
62
4
6
CONTINUOUS
0
LAYER
2
77_SONSTIGE
62
4
6
CONTINUOUS
0
LAYER
2
78_SONSTIGE
62
4
6
CONTINUOUS
0
LAYER
2
79_SONSTIGE
62
4
6
CONTINUOUS
0
LAYER
2
80_SONSTIGE
62
4
6
CONTINUOUS
0
LAYER
2
81_SONSTIGE
62
4
6
CONTINUOUS
0
LAYER
2
82_SONSTIGE
62
4
6
CONTINUOUS
0
LAYER
2
83_SONSTIGE
62
4
6
CONTINUOUS
0
LAYER
2
84_SONSTIGE
62
4
6
CONTINUOUS
0
LAYER
2
85_SONSTIGE
62
4
6
CONTINUOUS
0
LAYER
2
86_SONSTIGE
62
4
6
CONTINUOUS
0
LAYER
2
87_SONSTIGE
62
4
6
CONTINUOUS
0
LAYER
2
88_SONSTIGE
62
4
6
CONTINUOUS
0
LAYER
2
89_SONSTIGE
62
4
6
CONTINUOUS
0
LAYER
2
90_SONSTIGE
62
4
6
CONTINUOUS
0
LAYER
2
91_SONSTIGE
62
4
6
CONTINUOUS
0
LAYER
2
92_SONSTIGE
62
4
6
CONTINUOUS
0
LAYER
2
93_SONSTIGE
62
4
6
CONTINUOUS
0
LAYER
2
94_SONSTIGE
62
4
6
CONTINUOUS
0
LAYER
2
95_SONSTIGE
62
4
6
CONTINUOUS
0
LAYER
2
96_SONSTIGE
62
4
6
CONTINUOUS
0
LAYER
2
97_SONSTIGE
62
4
6
CONTINUOUS
0
LAYER
2
98_SONSTIGE
62
4
6
CONTINUOUS
0
LAYER
2
99_SONSTIGE
62
4
6
CONTINUOUS
0
ENDTAB
0
ENDSEC
0
SECTION
2
ENTITIES
0
POLYLINE
8
21_BESTUECKUNGOBEN
66
1
40
0.150000
41
0.150000
0
VERTEX
8
21_BESTUECKUNGOBEN
10
41.910000
20
26.745000
42
1
0
VERTEX
8
21_BESTUECKUNGOBEN
10
41.910000
20
26.595000
42
1
0
VERTEX
8
21_BESTUECKUNGOBEN
10
41.910000
20
26.745000
0
SEQEND
0
POLYLINE
8
21_BESTUECKUNGOBEN
66
1
40
0.150000
41
0.150000
0
VERTEX
8
21_BESTUECKUNGOBEN
10
46.990000
20
26.745000
42
1
0
VERTEX
8
21_BESTUECKUNGOBEN
10
46.990000
20
26.595000
42
1
0
VERTEX
8
21_BESTUECKUNGOBEN
10
46.990000
20
26.745000
0
SEQEND
0
POLYLINE
8
21_BESTUECKUNGOBEN
66
1
40
0.300000
41
0.300000
0
VERTEX
8
21_BESTUECKUNGOBEN
10
41.910000
20
26.670000
0
VERTEX
8
21_BESTUECKUNGOBEN
10
46.990000
20
26.670000
0
SEQEND
0
POLYLINE
8
21_BESTUECKUNGOBEN
66
1
40
0.150000
41
0.150000
0
VERTEX
8
21_BESTUECKUNGOBEN
10
46.990000
20
26.745000
42
1
0
VERTEX
8
21_BESTUECKUNGOBEN
10
46.990000
20
26.595000
42
1
0
VERTEX
8
21_BESTUECKUNGOBEN
10
46.990000
20
26.745000
0
SEQEND
0
POLYLINE
8
21_BESTUECKUNGOBEN
66
1
40
0.150000
41
0.150000
0
VERTEX
8
21_BESTUECKUNGOBEN
10
46.990000
20
24.205000
42
1
0
VERTEX
8
21_BESTUECKUNGOBEN
10
46.990000
20
24.055000
42
1
0
VERTEX
8
21_BESTUECKUNGOBEN
10
46.990000
20
24.205000
0
SEQEND
0
POLYLINE
8
21_BESTUECKUNGOBEN
66
1
40
0.300000
41
0.300000
0
VERTEX
8
21_BESTUECKUNGOBEN
10
46.990000
20
26.670000
0
VERTEX
8
21_BESTUECKUNGOBEN
10
46.990000
20
24.130000
0
SEQEND
0
POLYLINE
8
21_BESTUECKUNGOBEN
66
1
40
0.150000
41
0.150000
0
VERTEX
8
21_BESTUECKUNGOBEN
10
46.990000
20
24.205000
42
1
0
VERTEX
8
21_BESTUECKUNGOBEN
10
46.990000
20
24.055000
42
1
0
VERTEX
8
21_BESTUECKUNGOBEN
10
46.990000
20
24.205000
0
SEQEND
0
POLYLINE
8
21_BESTUECKUNGOBEN
66
1
40
0.150000
41
0.150000
0
VERTEX
8
21_BESTUECKUNGOBEN
10
41.910000
20
24.205000
42
1
0
VERTEX
8
21_BESTUECKUNGOBEN
10
41.910000
20
24.055000
42
1
0
VERTEX
8
21_BESTUECKUNGOBEN
10
41.910000
20
24.205000
0
SEQEND
0
POLYLINE
8
21_BESTUECKUNGOBEN
66
1
40
0.300000
41
0.300000
0
VERTEX
8
21_BESTUECKUNGOBEN
10
46.990000
20
24.130000
0
VERTEX
8
21_BESTUECKUNGOBEN
10
41.910000
20
24.130000
0
SEQEND
0
POLYLINE
8
21_BESTUECKUNGOBEN
66
1
40
0.150000
41
0.150000
0
VERTEX
8
21_BESTUECKUNGOBEN
10
41.910000
20
24.205000
42
1
0
VERTEX
8
21_BESTUECKUNGOBEN
10
41.910000
20
24.055000
42
1
0
VERTEX
8
21_BESTUECKUNGOBEN
10
41.910000
20
24.205000
0
SEQEND
0
POLYLINE
8
21_BESTUECKUNGOBEN
66
1
40
0.150000
41
0.150000
0
VERTEX
8
21_BESTUECKUNGOBEN
10
41.910000
20
26.745000
42
1
0
VERTEX
8
21_BESTUECKUNGOBEN
10
41.910000
20
26.595000
42
1
0
VERTEX
8
21_BESTUECKUNGOBEN
10
41.910000
20
26.745000
0
SEQEND
0
POLYLINE
8
21_BESTUECKUNGOBEN
66
1
40
0.300000
41
0.300000
0
VERTEX
8
21_BESTUECKUNGOBEN
10
41.910000
20
24.130000
0
VERTEX
8
21_BESTUECKUNGOBEN
10
41.910000
20
26.670000
0
SEQEND
0
TEXT
8
21_BESTUECKUNGOBEN
50
0.000000
10
42.704000
20
24.765000
40
1.500000
1
R1
0
POLYLINE
8
21_BESTUECKUNGOBEN
66
1
40
0.150000
41
0.150000
0
VERTEX
8
21_BESTUECKUNGOBEN
10
39.370000
20
25.475000
42
1
0
VERTEX
8
21_BESTUECKUNGOBEN
10
39.370000
20
25.325000
42
1
0
VERTEX
8
21_BESTUECKUNGOBEN
10
39.370000
20
25.475000
0
SEQEND
0
POLYLINE
8
21_BESTUECKUNGOBEN
66
1
40
0.150000
41
0.150000
0
VERTEX
8
21_BESTUECKUNGOBEN
10
41.910000
20
25.475000
42
1
0
VERTEX
8
21_BESTUECKUNGOBEN
10
41.910000
20
25.325000
42
1
0
VERTEX
8
21_BESTUECKUNGOBEN
10
41.910000
20
25.475000
0
SEQEND
0
POLYLINE
8
21_BESTUECKUNGOBEN
66
1
40
0.300000
41
0.300000
0
VERTEX
8
21_BESTUECKUNGOBEN
10
39.370000
20
25.400000
0
VERTEX
8
21_BESTUECKUNGOBEN
10
41.910000
20
25.400000
0
SEQEND
0
POLYLINE
8
21_BESTUECKUNGOBEN
66
1
40
0.150000
41
0.150000
0
VERTEX
8
21_BESTUECKUNGOBEN
10
46.990000
20
25.475000
42
1
0
VERTEX
8
21_BESTUECKUNGOBEN
10
46.990000
20
25.325000
42
1
0
VERTEX
8
21_BESTUECKUNGOBEN
10
46.990000
20
25.475000
0
SEQEND
0
POLYLINE
8
21_BESTUECKUNGOBEN
66
1
40
0.150000
41
0.150000
0
VERTEX
8
21_BESTUECKUNGOBEN
10
49.530000
20
25.475000
42
1
0
VERTEX
8
21_BESTUECKUNGOBEN
10
49.530000
20
25.325000
42
1
0
VERTEX
8
21_BESTUECKUNGOBEN
10
49.530000
20
25.475000
0
SEQEND
0
POLYLINE
8
21_BESTUECKUNGOBEN
66
1
40
0.300000
41
0.300000
0
VERTEX
8
21_BESTUECKUNGOBEN
10
46.990000
20
25.400000
0
VERTEX
8
21_BESTUECKUNGOBEN
10
49.530000
20
25.400000
0
SEQEND
0
POLYLINE
8
21_BESTUECKUNGOBEN
66
1
40
0.300000
41
0.300000
0
VERTEX
8
21_BESTUECKUNGOBEN
10
57.683000
20
19.050000
42
1.000000
0
VERTEX
8
21_BESTUECKUNGOBEN
10
54.077000
20
19.050000
42
1.000000
0
VERTEX
8
21_BESTUECKUNGOBEN
10
57.683000
20
19.050000
0
SEQEND
0
POLYLINE
8
21_BESTUECKUNGOBEN
66
1
40
0.150000
41
0.150000
0
VERTEX
8
21_BESTUECKUNGOBEN
10
59.055000
20
24.840000
42
1
0
VERTEX
8
21_BESTUECKUNGOBEN
10
59.055000
20
24.690000
42
1
0
VERTEX
8
21_BESTUECKUNGOBEN
10
59.055000
20
24.840000
0
SEQEND
0
POLYLINE
8
21_BESTUECKUNGOBEN
66
1
40
0.150000
41
0.150000
0
VERTEX
8
21_BESTUECKUNGOBEN
10
57.150000
20
24.840000
42
1
0
VERTEX
8
21_BESTUECKUNGOBEN
10
57.150000
20
24.690000
42
1
0
VERTEX
8
21_BESTUECKUNGOBEN
10
57.150000
20
24.840000
0
SEQEND
0
POLYLINE
8
21_BESTUECKUNGOBEN
66
1
40
0.300000
41
0.300000
0
VERTEX
8
21_BESTUECKUNGOBEN
10
59.055000
20
24.765000
0
VERTEX
8
21_BESTUECKUNGOBEN
10
57.150000
20
24.765000
0
SEQEND
0
POLYLINE
8
21_BESTUECKUNGOBEN
66
1
40
0.150000
41
0.150000
0
VERTEX
8
21_BESTUECKUNGOBEN
10
57.150000
20
24.840000
42
1
0
VERTEX
8
21_BESTUECKUNGOBEN
10
57.150000
20
24.690000
42
1
0
VERTEX
8
21_BESTUECKUNGOBEN
10
57.150000
20
24.840000
0
SEQEND
0
POLYLINE
8
21_BESTUECKUNGOBEN
66
1
40
0.150000
41
0.150000
0
VERTEX
8
21_BESTUECKUNGOBEN
10
54.610000
20
24.840000
42
1
0
VERTEX
8
21_BESTUECKUNGOBEN
10
54.610000
20
24.690000
42
1
0
VERTEX
8
21_BESTUECKUNGOBEN
10
54.610000
20
24.840000
0
SEQEND
0
POLYLINE
8
21_BESTUECKUNGOBEN
66
1
40
0.300000
41
0.300000
0
VERTEX
8
21_BESTUECKUNGOBEN
10
57.150000
20
24.765000
0
VERTEX
8
21_BESTUECKUNGOBEN
10
54.610000
20
24.765000
0
SEQEND
0
POLYLINE
8
21_BESTUECKUNGOBEN
66
1
40
0.150000
41
0.150000
0
VERTEX
8
21_BESTUECKUNGOBEN
10
54.610000
20
24.840000
42
1
0
VERTEX
8
21_BESTUECKUNGOBEN
10
54.610000
20
24.690000
42
1
0
VERTEX
8
21_BESTUECKUNGOBEN
10
54.610000
20
24.840000
0
SEQEND
0
POLYLINE
8
21_BESTUECKUNGOBEN
66
1
40
0.150000
41
0.150000
0
VERTEX
8
21_BESTUECKUNGOBEN
10
52.705000
20
24.840000
42
1
0
VERTEX
8
21_BESTUECKUNGOBEN
10
52.705000
20
24.690000
42
1
0
VERTEX
8
21_BESTUECKUNGOBEN
10
52.705000
20
24.840000
0
SEQEND
0
POLYLINE
8
21_BESTUECKUNGOBEN
66
1
40
0.300000
41
0.300000
0
VERTEX
8
21_BESTUECKUNGOBEN
10
54.610000
20
24.765000
0
VERTEX
8
21_BESTUECKUNGOBEN
10
52.705000
20
24.765000
0
SEQEND
0
POLYLINE
8
21_BESTUECKUNGOBEN
66
1
40
0.150000
41
0.150000
0
VERTEX
8
21_BESTUECKUNGOBEN
10
54.991000
20
17.728000
42
1
0
VERTEX
8
21_BESTUECKUNGOBEN
10
54.991000
20
17.578000
42
1
0
VERTEX
8
21_BESTUECKUNGOBEN
10
54.991000
20
17.728000
0
SEQEND
0
POLYLINE
8
21_BESTUECKUNGOBEN
66
1
40
0.150000
41
0.150000
0
VERTEX
8
21_BESTUECKUNGOBEN
10
56.007000
20
18.744000
42
1
0
VERTEX
8
21_BESTUECKUNGOBEN
10
56.007000
20
18.594000
42
1
0
VERTEX
8
21_BESTUECKUNGOBEN
10
56.007000
20
18.744000
0
SEQEND
0
POLYLINE
8
21_BESTUECKUNGOBEN
66
1
40
0.300000
41
0.300000
0
VERTEX
8
21_BESTUECKUNGOBEN
10
54.991000
20
17.653000
0
VERTEX
8
21_BESTUECKUNGOBEN
10
56.007000
20
18.669000
0
SEQEND
0
POLYLINE
8
21_BESTUECKUNGOBEN
66
1
40
0.150000
41
0.150000
0
VERTEX
8
21_BESTUECKUNGOBEN
10
56.007000
20
18.744000
42
1
0
VERTEX
8
21_BESTUECKUNGOBEN
10
56.007000
20
18.594000
42
1
0
VERTEX
8
21_BESTUECKUNGOBEN
10
56.007000
20
18.744000
0
SEQEND
0
POLYLINE
8
21_BESTUECKUNGOBEN
66
1
40
0.150000
41
0.150000
0
VERTEX
8
21_BESTUECKUNGOBEN
10
56.388000
20
18.363000
42
1
0
VERTEX
8
21_BESTUECKUNGOBEN
10
56.388000
20
18.213000
42
1
0
VERTEX
8
21_BESTUECKUNGOBEN
10
56.388000
20
18.363000
0
SEQEND
0
POLYLINE
8
21_BESTUECKUNGOBEN
66
1
40
0.300000
41
0.300000
0
VERTEX
8
21_BESTUECKUNGOBEN
10
56.007000
20
18.669000
0
VERTEX
8
21_BESTUECKUNGOBEN
10
56.388000
20
18.288000
0
SEQEND
0
POLYLINE
8
21_BESTUECKUNGOBEN
66
1
40
0.150000
41
0.150000
0
VERTEX
8
21_BESTUECKUNGOBEN
10
56.388000
20
18.363000
42
1
0
VERTEX
8
21_BESTUECKUNGOBEN
10
56.388000
20
18.213000
42
1
0
VERTEX
8
21_BESTUECKUNGOBEN
10
56.388000
20
18.363000
0
SEQEND
0
POLYLINE
8
21_BESTUECKUNGOBEN
66
1
40
0.150000
41
0.150000
0
VERTEX
8
21_BESTUECKUNGOBEN
10
56.388000
20
19.125000
42
1
0
VERTEX
8
21_BESTUECKUNGOBEN
10
56.388000
20
18.975000
42
1
0
VERTEX
8
21_BESTUECKUNGOBEN
10
56.388000
20
19.125000
0
SEQEND
0
POLYLINE
8
21_BESTUECKUNGOBEN
66
1
40
0.300000
41
0.300000
0
VERTEX
8
21_BESTUECKUNGOBEN
10
56.388000
20
18.288000
0
VERTEX
8
21_BESTUECKUNGOBEN
10
56.388000
20
19.050000
0
SEQEND
0
POLYLINE
8
21_BESTUECKUNGOBEN
66
1
40
0.150000
41
0.150000
0
VERTEX
8
21_BESTUECKUNGOBEN
10
56.388000
20
19.125000
42
1
0
VERTEX
8
21_BESTUECKUNGOBEN
10
56.388000
20
18.975000
42
1
0
VERTEX
8
21_BESTUECKUNGOBEN
10
56.388000
20
19.125000
0
SEQEND
0
POLYLINE
8
21_BESTUECKUNGOBEN
66
1
40
0.150000
41
0.150000
0
VERTEX
8
21_BESTUECKUNGOBEN
10
57.277000
20
20.014000
42
1
0
VERTEX
8
21_BESTUECKUNGOBEN
10
57.277000
20
19.864000
42
1
0
VERTEX
8
21_BESTUECKUNGOBEN
10
57.277000
20
20.014000
0
SEQEND
0
POLYLINE
8
21_BESTUECKUNGOBEN
66
1
40
0.300000
41
0.300000
0
VERTEX
8
21_BESTUECKUNGOBEN
10
56.388000
20
19.050000
0
VERTEX
8
21_BESTUECKUNGOBEN
10
57.277000
20
19.939000
0
SEQEND
0
POLYLINE
8
21_BESTUECKUNGOBEN
66
1
40
0.150000
41
0.150000
0
VERTEX
8
21_BESTUECKUNGOBEN
10
54.483000
20
18.236000
42
1
0
VERTEX
8
21_BESTUECKUNGOBEN
10
54.483000
20
18.086000
42
1
0
VERTEX
8
21_BESTUECKUNGOBEN
10
54.483000
20
18.236000
0
SEQEND
0
POLYLINE
8
21_BESTUECKUNGOBEN
66
1
40
0.150000
41
0.150000
0
VERTEX
8
21_BESTUECKUNGOBEN
10
55.499000
20
19.252000
42
1
0
VERTEX
8
21_BESTUECKUNGOBEN
10
55.499000
20
19.102000
42
1
0
VERTEX
8
21_BESTUECKUNGOBEN
10
55.499000
20
19.252000
0
SEQEND
0
POLYLINE
8
21_BESTUECKUNGOBEN
66
1
40
0.300000
41
0.300000
0
VERTEX
8
21_BESTUECKUNGOBEN
10
54.483000
20
18.161000
0
VERTEX
8
21_BESTUECKUNGOBEN
10
55.499000
20
19.177000
0
SEQEND
0
POLYLINE
8
21_BESTUECKUNGOBEN
66
1
40
0.150000
41
0.150000
0
VERTEX
8
21_BESTUECKUNGOBEN
10
55.499000
20
19.252000
42
1
0
VERTEX
8
21_BESTUECKUNGOBEN
10
55.499000
20
19.102000
42
1
0
VERTEX
8
21_BESTUECKUNGOBEN
10
55.499000
20
19.252000
0
SEQEND
0
POLYLINE
8
21_BESTUECKUNGOBEN
66
1
40
0.150000
41
0.150000
0
VERTEX
8
21_BESTUECKUNGOBEN
10
55.118000
20
19.633000
42
1
0
VERTEX
8
21_BESTUECKUNGOBEN
10
55.118000
20
19.483000
42
1
0
VERTEX
8
21_BESTUECKUNGOBEN
10
55.118000
20
19.633000
0
SEQEND
0
POLYLINE
8
21_BESTUECKUNGOBEN
66
1
40
0.300000
41
0.300000
0
VERTEX
8
21_BESTUECKUNGOBEN
10
55.499000
20
19.177000
0
VERTEX
8
21_BESTUECKUNGOBEN
10
55.118000
20
19.558000
0
SEQEND
0
POLYLINE
8
21_BESTUECKUNGOBEN
66
1
40
0.150000
41
0.150000
0
VERTEX
8
21_BESTUECKUNGOBEN
10
55.118000
20
19.633000
42
1
0
VERTEX
8
21_BESTUECKUNGOBEN
10
55.118000
20
19.483000
42
1
0
VERTEX
8
21_BESTUECKUNGOBEN
10
55.118000
20
19.633000
0
SEQEND
0
POLYLINE
8
21_BESTUECKUNGOBEN
66
1
40
0.150000
41
0.150000
0
VERTEX
8
21_BESTUECKUNGOBEN
10
55.880000
20
19.633000
42
1
0
VERTEX
8
21_BESTUECKUNGOBEN
10
55.880000
20
19.483000
42
1
0
VERTEX
8
21_BESTUECKUNGOBEN
10
55.880000
20
19.633000
0
SEQEND
0
POLYLINE
8
21_BESTUECKUNGOBEN
66
1
40
0.300000
41
0.300000
0
VERTEX
8
21_BESTUECKUNGOBEN
10
55.118000
20
19.558000
0
VERTEX
8
21_BESTUECKUNGOBEN
10
55.880000
20
19.558000
0
SEQEND
0
POLYLINE
8
21_BESTUECKUNGOBEN
66
1
40
0.150000
41
0.150000
0
VERTEX
8
21_BESTUECKUNGOBEN
10
55.880000
20
19.633000
42
1
0
VERTEX
8
21_BESTUECKUNGOBEN
10
55.880000
20
19.483000
42
1
0
VERTEX
8
21_BESTUECKUNGOBEN
10
55.880000
20
19.633000
0
SEQEND
0
POLYLINE
8
21_BESTUECKUNGOBEN
66
1
40
0.150000
41
0.150000
0
VERTEX
8
21_BESTUECKUNGOBEN
10
56.769000
20
20.522000
42
1
0
VERTEX
8
21_BESTUECKUNGOBEN
10
56.769000
20
20.372000
42
1
0
VERTEX
8
21_BESTUECKUNGOBEN
10
56.769000
20
20.522000
0
SEQEND
0
POLYLINE
8
21_BESTUECKUNGOBEN
66
1
40
0.300000
41
0.300000
0
VERTEX
8
21_BESTUECKUNGOBEN
10
55.880000
20
19.558000
0
VERTEX
8
21_BESTUECKUNGOBEN
10
56.769000
20
20.447000
0
SEQEND
0
POLYLINE
8
21_BESTUECKUNGOBEN
66
1
40
0.300000
41
0.300000
0
VERTEX
8
21_BESTUECKUNGOBEN
10
58.674000
20
19.050000
42
1.000000
0
VERTEX
8
21_BESTUECKUNGOBEN
10
53.086000
20
19.050000
42
1.000000
0
VERTEX
8
21_BESTUECKUNGOBEN
10
58.674000
20
19.050000
0
SEQEND
0
POLYLINE
8
21_BESTUECKUNGOBEN
66
1
40
0.150000
41
0.150000
0
VERTEX
8
21_BESTUECKUNGOBEN
10
52.733620
20
23.970000
42
1
0
VERTEX
8
21_BESTUECKUNGOBEN
10
52.733620
20
23.820000
42
1
0
VERTEX
8
21_BESTUECKUNGOBEN
10
52.733620
20
23.970000
0
SEQEND
0
POLYLINE
8
21_BESTUECKUNGOBEN
66
1
40
0.150000
41
0.150000
0
VERTEX
8
21_BESTUECKUNGOBEN
10
59.026380
20
23.970000
42
1
0
VERTEX
8
21_BESTUECKUNGOBEN
10
59.026380
20
23.820000
42
1
0
VERTEX
8
21_BESTUECKUNGOBEN
10
59.026380
20
23.970000
0
SEQEND
0
POLYLINE
8
21_BESTUECKUNGOBEN
66
1
40
0.300000
41
0.300000
0
VERTEX
8
21_BESTUECKUNGOBEN
10
52.733620
20
23.895000
42
0.746735
0
VERTEX
8
21_BESTUECKUNGOBEN
10
55.880000
20
13.273000
42
0.746735
0
VERTEX
8
21_BESTUECKUNGOBEN
10
59.026380
20
23.895000
0
SEQEND
0
TEXT
8
21_BESTUECKUNGOBEN
50
0.000000
10
55.931000
20
25.305000
40
2.000000
1
P1
0
POLYLINE
8
21_BESTUECKUNGOBEN
66
1
40
0.150000
41
0.150000
0
VERTEX
8
21_BESTUECKUNGOBEN
10
59.055000
20
24.840000
42
1
0
VERTEX
8
21_BESTUECKUNGOBEN
10
59.055000
20
24.690000
42
1
0
VERTEX
8
21_BESTUECKUNGOBEN
10
59.055000
20
24.840000
0
SEQEND
0
POLYLINE
8
21_BESTUECKUNGOBEN
66
1
40
0.150000
41
0.150000
0
VERTEX
8
21_BESTUECKUNGOBEN
10
59.055000
20
23.887000
42
1
0
VERTEX
8
21_BESTUECKUNGOBEN
10
59.055000
20
23.737000
42
1
0
VERTEX
8
21_BESTUECKUNGOBEN
10
59.055000
20
23.887000
0
SEQEND
0
POLYLINE
8
21_BESTUECKUNGOBEN
66
1
40
0.300000
41
0.300000
0
VERTEX
8
21_BESTUECKUNGOBEN
10
59.055000
20
24.765000
0
VERTEX
8
21_BESTUECKUNGOBEN
10
59.055000
20
23.812000
0
SEQEND
0
POLYLINE
8
21_BESTUECKUNGOBEN
66
1
40
0.150000
41
0.150000
0
VERTEX
8
21_BESTUECKUNGOBEN
10
52.705000
20
24.840000
42
1
0
VERTEX
8
21_BESTUECKUNGOBEN
10
52.705000
20
24.690000
42
1
0
VERTEX
8
21_BESTUECKUNGOBEN
10
52.705000
20
24.840000
0
SEQEND
0
POLYLINE
8
21_BESTUECKUNGOBEN
66
1
40
0.150000
41
0.150000
0
VERTEX
8
21_BESTUECKUNGOBEN
10
52.705000
20
23.887000
42
1
0
VERTEX
8
21_BESTUECKUNGOBEN
10
52.705000
20
23.737000
42
1
0
VERTEX
8
21_BESTUECKUNGOBEN
10
52.705000
20
23.887000
0
SEQEND
0
POLYLINE
8
21_BESTUECKUNGOBEN
66
1
40
0.300000
41
0.300000
0
VERTEX
8
21_BESTUECKUNGOBEN
10
52.705000
20
24.765000
0
VERTEX
8
21_BESTUECKUNGOBEN
10
52.705000
20
23.812000
0
SEQEND
0
POLYLINE
8
21_BESTUECKUNGOBEN
66
1
40
0.150000
41
0.150000
0
VERTEX
8
21_BESTUECKUNGOBEN
10
54.610000
20
-1.830000
42
1
0
VERTEX
8
21_BESTUECKUNGOBEN
10
54.610000
20
-1.980000
42
1
0
VERTEX
8
21_BESTUECKUNGOBEN
10
54.610000
20
-1.830000
0
SEQEND
0
POLYLINE
8
21_BESTUECKUNGOBEN
66
1
40
0.150000
41
0.150000
0
VERTEX
8
21_BESTUECKUNGOBEN
10
54.610000
20
3.250000
42
1
0
VERTEX
8
21_BESTUECKUNGOBEN
10
54.610000
20
3.100000
42
1
0
VERTEX
8
21_BESTUECKUNGOBEN
10
54.610000
20
3.250000
0
SEQEND
0
POLYLINE
8
21_BESTUECKUNGOBEN
66
1
40
0.300000
41
0.300000
0
VERTEX
8
21_BESTUECKUNGOBEN
10
54.610000
20
-1.905000
0
VERTEX
8
21_BESTUECKUNGOBEN
10
54.610000
20
3.175000
0
SEQEND
0
POLYLINE
8
21_BESTUECKUNGOBEN
66
1
40
0.150000
41
0.150000
0
VERTEX
8
21_BESTUECKUNGOBEN
10
54.610000
20
3.250000
42
1
0
VERTEX
8
21_BESTUECKUNGOBEN
10
54.610000
20
3.100000
42
1
0
VERTEX
8
21_BESTUECKUNGOBEN
10
54.610000
20
3.250000
0
SEQEND
0
POLYLINE
8
21_BESTUECKUNGOBEN
66
1
40
0.150000
41
0.150000
0
VERTEX
8
21_BESTUECKUNGOBEN
10
57.150000
20
3.250000
42
1
0
VERTEX
8
21_BESTUECKUNGOBEN
10
57.150000
20
3.100000
42
1
0
VERTEX
8
21_BESTUECKUNGOBEN
10
57.150000
20
3.250000
0
SEQEND
0
POLYLINE
8
21_BESTUECKUNGOBEN
66
1
40
0.300000
41
0.300000
0
VERTEX
8
21_BESTUECKUNGOBEN
10
54.610000
20
3.175000
0
VERTEX
8
21_BESTUECKUNGOBEN
10
57.150000
20
3.175000
0
SEQEND
0
POLYLINE
8
21_BESTUECKUNGOBEN
66
1
40
0.150000
41
0.150000
0
VERTEX
8
21_BESTUECKUNGOBEN
10
57.150000
20
3.250000
42
1
0
VERTEX
8
21_BESTUECKUNGOBEN
10
57.150000
20
3.100000
42
1
0
VERTEX
8
21_BESTUECKUNGOBEN
10
57.150000
20
3.250000
0
SEQEND
0
POLYLINE
8
21_BESTUECKUNGOBEN
66
1
40
0.150000
41
0.150000
0
VERTEX
8
21_BESTUECKUNGOBEN
10
57.150000
20
-1.830000
42
1
0
VERTEX
8
21_BESTUECKUNGOBEN
10
57.150000
20
-1.980000
42
1
0
VERTEX
8
21_BESTUECKUNGOBEN
10
57.150000
20
-1.830000
0
SEQEND
0
POLYLINE
8
21_BESTUECKUNGOBEN
66
1
40
0.300000
41
0.300000
0
VERTEX
8
21_BESTUECKUNGOBEN
10
57.150000
20
3.175000
0
VERTEX
8
21_BESTUECKUNGOBEN
10
57.150000
20
-1.905000
0
SEQEND
0
POLYLINE
8
21_BESTUECKUNGOBEN
66
1
40
0.150000
41
0.150000
0
VERTEX
8
21_BESTUECKUNGOBEN
10
57.150000
20
-1.830000
42
1
0
VERTEX
8
21_BESTUECKUNGOBEN
10
57.150000
20
-1.980000
42
1
0
VERTEX
8
21_BESTUECKUNGOBEN
10
57.150000
20
-1.830000
0
SEQEND
0
POLYLINE
8
21_BESTUECKUNGOBEN
66
1
40
0.150000
41
0.150000
0
VERTEX
8
21_BESTUECKUNGOBEN
10
54.610000
20
-1.830000
42
1
0
VERTEX
8
21_BESTUECKUNGOBEN
10
54.610000
20
-1.980000
42
1
0
VERTEX
8
21_BESTUECKUNGOBEN
10
54.610000
20
-1.830000
0
SEQEND
0
POLYLINE
8
21_BESTUECKUNGOBEN
66
1
40
0.300000
41
0.300000
0
VERTEX
8
21_BESTUECKUNGOBEN
10
57.150000
20
-1.905000
0
VERTEX
8
21_BESTUECKUNGOBEN
10
54.610000
20
-1.905000
0
SEQEND
0
TEXT
8
21_BESTUECKUNGOBEN
50
90.000000
10
56.515000
20
-1.111000
40
1.500000
1
R2
0
POLYLINE
8
21_BESTUECKUNGOBEN
66
1
40
0.150000
41
0.150000
0
VERTEX
8
21_BESTUECKUNGOBEN
10
55.880000
20
-4.370000
42
1
0
VERTEX
8
21_BESTUECKUNGOBEN
10
55.880000
20
-4.520000
42
1
0
VERTEX
8
21_BESTUECKUNGOBEN
10
55.880000
20
-4.370000
0
SEQEND
0
POLYLINE
8
21_BESTUECKUNGOBEN
66
1
40
0.150000
41
0.150000
0
VERTEX
8
21_BESTUECKUNGOBEN
10
55.880000
20
-1.830000
42
1
0
VERTEX
8
21_BESTUECKUNGOBEN
10
55.880000
20
-1.980000
42
1
0
VERTEX
8
21_BESTUECKUNGOBEN
10
55.880000
20
-1.830000
0
SEQEND
0
POLYLINE
8
21_BESTUECKUNGOBEN
66
1
40
0.300000
41
0.300000
0
VERTEX
8
21_BESTUECKUNGOBEN
10
55.880000
20
-4.445000
0
VERTEX
8
21_BESTUECKUNGOBEN
10
55.880000
20
-1.905000
0
SEQEND
0
POLYLINE
8
21_BESTUECKUNGOBEN
66
1
40
0.150000
41
0.150000
0
VERTEX
8
21_BESTUECKUNGOBEN
10
55.880000
20
3.250000
42
1
0
VERTEX
8
21_BESTUECKUNGOBEN
10
55.880000
20
3.100000
42
1
0
VERTEX
8
21_BESTUECKUNGOBEN
10
55.880000
20
3.250000
0
SEQEND
0
POLYLINE
8
21_BESTUECKUNGOBEN
66
1
40
0.150000
41
0.150000
0
VERTEX
8
21_BESTUECKUNGOBEN
10
55.880000
20
5.790000
42
1
0
VERTEX
8
21_BESTUECKUNGOBEN
10
55.880000
20
5.640000
42
1
0
VERTEX
8
21_BESTUECKUNGOBEN
10
55.880000
20
5.790000
0
SEQEND
0
POLYLINE
8
21_BESTUECKUNGOBEN
66
1
40
0.300000
41
0.300000
0
VERTEX
8
21_BESTUECKUNGOBEN
10
55.880000
20
3.175000
0
VERTEX
8
21_BESTUECKUNGOBEN
10
55.880000
20
5.715000
0
SEQEND
0
POLYLINE
8
21_BESTUECKUNGOBEN
66
1
40
0.300000
41
0.300000
0
VERTEX
8
21_BESTUECKUNGOBEN
10
72.682000
20
-6.985000
42
1.000000
0
VERTEX
8
21_BESTUECKUNGOBEN
10
61.938000
20
-6.985000
42
1.000000
0
VERTEX
8
21_BESTUECKUNGOBEN
10
72.682000
20
-6.985000
0
SEQEND
0
TEXT
8
21_BESTUECKUNGOBEN
50
0.000000
10
62.230000
20
-15.240000
40
2.000000
1
D5
0
POLYLINE
8
21_BESTUECKUNGOBEN
66
1
40
0.300000
41
0.300000
0
VERTEX
8
21_BESTUECKUNGOBEN
10
30.772000
20
-6.985000
42
1.000000
0
VERTEX
8
21_BESTUECKUNGOBEN
10
20.028000
20
-6.985000
42
1.000000
0
VERTEX
8
21_BESTUECKUNGOBEN
10
30.772000
20
-6.985000
0
SEQEND
0
TEXT
8
21_BESTUECKUNGOBEN
50
0.000000
10
26.880000
20
-0.730000
40
2.000000
1
D4
0
POLYLINE
8
21_BESTUECKUNGOBEN
66
1
40
0.300000
41
0.300000
0
VERTEX
8
21_BESTUECKUNGOBEN
10
72.682000
20
18.415000
42
1.000000
0
VERTEX
8
21_BESTUECKUNGOBEN
10
61.938000
20
18.415000
42
1.000000
0
VERTEX
8
21_BESTUECKUNGOBEN
10
72.682000
20
18.415000
0
SEQEND
0
TEXT
8
21_BESTUECKUNGOBEN
50
0.000000
10
62.230000
20
10.160000
40
2.000000
1
D3
0
POLYLINE
8
21_BESTUECKUNGOBEN
66
1
40
0.300000
41
0.300000
0
VERTEX
8
21_BESTUECKUNGOBEN
10
51.727000
20
5.715000
42
1.000000
0
VERTEX
8
21_BESTUECKUNGOBEN
10
40.983000
20
5.715000
42
1.000000
0
VERTEX
8
21_BESTUECKUNGOBEN
10
51.727000
20
5.715000
0
SEQEND
0
TEXT
8
21_BESTUECKUNGOBEN
50
0.000000
10
41.275000
20
-2.540000
40
2.000000
1
D2
0
POLYLINE
8
21_BESTUECKUNGOBEN
66
1
40
0.300000
41
0.300000
0
VERTEX
8
21_BESTUECKUNGOBEN
10
30.772000
20
18.415000
42
1.000000
0
VERTEX
8
21_BESTUECKUNGOBEN
10
20.028000
20
18.415000
42
1.000000
0
VERTEX
8
21_BESTUECKUNGOBEN
10
30.772000
20
18.415000
0
SEQEND
0
TEXT
8
21_BESTUECKUNGOBEN
50
90.000000
10
33.655000
20
13.335000
40
2.000000
1
D1
0
TEXT
8
21_BESTUECKUNGOBEN
50
0.000000
10
58.706000
20
1.251000
40
2.000000
1
K1
0
POLYLINE
8
21_BESTUECKUNGOBEN
66
1
40
0.150000
41
0.150000
0
VERTEX
8
21_BESTUECKUNGOBEN
10
62.230000
20
3.885000
42
1
0
VERTEX
8
21_BESTUECKUNGOBEN
10
62.230000
20
3.735000
42
1
0
VERTEX
8
21_BESTUECKUNGOBEN
10
62.230000
20
3.885000
0
SEQEND
0
POLYLINE
8
21_BESTUECKUNGOBEN
66
1
40
0.150000
41
0.150000
0
VERTEX
8
21_BESTUECKUNGOBEN
10
60.960000
20
3.885000
42
1
0
VERTEX
8
21_BESTUECKUNGOBEN
10
60.960000
20
3.735000
42
1
0
VERTEX
8
21_BESTUECKUNGOBEN
10
60.960000
20
3.885000
0
SEQEND
0
POLYLINE
8
21_BESTUECKUNGOBEN
66
1
40
0.300000
41
0.300000
0
VERTEX
8
21_BESTUECKUNGOBEN
10
62.230000
20
3.810000
0
VERTEX
8
21_BESTUECKUNGOBEN
10
60.960000
20
3.810000
0
SEQEND
0
POLYLINE
8
21_BESTUECKUNGOBEN
66
1
40
0.150000
41
0.150000
0
VERTEX
8
21_BESTUECKUNGOBEN
10
60.960000
20
3.885000
42
1
0
VERTEX
8
21_BESTUECKUNGOBEN
10
60.960000
20
3.735000
42
1
0
VERTEX
8
21_BESTUECKUNGOBEN
10
60.960000
20
3.885000
0
SEQEND
0
POLYLINE
8
21_BESTUECKUNGOBEN
66
1
40
0.150000
41
0.150000
0
VERTEX
8
21_BESTUECKUNGOBEN
10
60.325000
20
4.520000
42
1
0
VERTEX
8
21_BESTUECKUNGOBEN
10
60.325000
20
4.370000
42
1
0
VERTEX
8
21_BESTUECKUNGOBEN
10
60.325000
20
4.520000
0
SEQEND
0
POLYLINE
8
21_BESTUECKUNGOBEN
66
1
40
0.300000
41
0.300000
0
VERTEX
8
21_BESTUECKUNGOBEN
10
60.960000
20
3.810000
0
VERTEX
8
21_BESTUECKUNGOBEN
10
60.325000
20
4.445000
0
SEQEND
0
POLYLINE
8
21_BESTUECKUNGOBEN
66
1
40
0.150000
41
0.150000
0
VERTEX
8
21_BESTUECKUNGOBEN
10
60.325000
20
4.520000
42
1
0
VERTEX
8
21_BESTUECKUNGOBEN
10
60.325000
20
4.370000
42
1
0
VERTEX
8
21_BESTUECKUNGOBEN
10
60.325000
20
4.520000
0
SEQEND
0
POLYLINE
8
21_BESTUECKUNGOBEN
66
1
40
0.150000
41
0.150000
0
VERTEX
8
21_BESTUECKUNGOBEN
10
60.325000
20
5.790000
42
1
0
VERTEX
8
21_BESTUECKUNGOBEN
10
60.325000
20
5.640000
42
1
0
VERTEX
8
21_BESTUECKUNGOBEN
10
60.325000
20
5.790000
0
SEQEND
0
POLYLINE
8
21_BESTUECKUNGOBEN
66
1
40
0.300000
41
0.300000
0
VERTEX
8
21_BESTUECKUNGOBEN
10
60.325000
20
4.445000
0
VERTEX
8
21_BESTUECKUNGOBEN
10
60.325000
20
5.715000
0
SEQEND
0
POLYLINE
8
21_BESTUECKUNGOBEN
66
1
40
0.150000
41
0.150000
0
VERTEX
8
21_BESTUECKUNGOBEN
10
60.325000
20
5.790000
42
1
0
VERTEX
8
21_BESTUECKUNGOBEN
10
60.325000
20
5.640000
42
1
0
VERTEX
8
21_BESTUECKUNGOBEN
10
60.325000
20
5.790000
0
SEQEND
0
POLYLINE
8
21_BESTUECKUNGOBEN
66
1
40
0.150000
41
0.150000
0
VERTEX
8
21_BESTUECKUNGOBEN
10
60.960000
20
6.425000
42
1
0
VERTEX
8
21_BESTUECKUNGOBEN
10
60.960000
20
6.275000
42
1
0
VERTEX
8
21_BESTUECKUNGOBEN
10
60.960000
20
6.425000
0
SEQEND
0
POLYLINE
8
21_BESTUECKUNGOBEN
66
1
40
0.300000
41
0.300000
0
VERTEX
8
21_BESTUECKUNGOBEN
10
60.325000
20
5.715000
0
VERTEX
8
21_BESTUECKUNGOBEN
10
60.960000
20
6.350000
0
SEQEND
0
POLYLINE
8
21_BESTUECKUNGOBEN
66
1
40
0.150000
41
0.150000
0
VERTEX
8
21_BESTUECKUNGOBEN
10
62.865000
20
4.520000
42
1
0
VERTEX
8
21_BESTUECKUNGOBEN
10
62.865000
20
4.370000
42
1
0
VERTEX
8
21_BESTUECKUNGOBEN
10
62.865000
20
4.520000
0
SEQEND
0
POLYLINE
8
21_BESTUECKUNGOBEN
66
1
40
0.150000
41
0.150000
0
VERTEX
8
21_BESTUECKUNGOBEN
10
62.865000
20
5.790000
42
1
0
VERTEX
8
21_BESTUECKUNGOBEN
10
62.865000
20
5.640000
42
1
0
VERTEX
8
21_BESTUECKUNGOBEN
10
62.865000
20
5.790000
0
SEQEND
0
POLYLINE
8
21_BESTUECKUNGOBEN
66
1
40
0.300000
41
0.300000
0
VERTEX
8
21_BESTUECKUNGOBEN
10
62.865000
20
4.445000
0
VERTEX
8
21_BESTUECKUNGOBEN
10
62.865000
20
5.715000
0
SEQEND
0
POLYLINE
8
21_BESTUECKUNGOBEN
66
1
40
0.150000
41
0.150000
0
VERTEX
8
21_BESTUECKUNGOBEN
10
62.230000
20
3.885000
42
1
0
VERTEX
8
21_BESTUECKUNGOBEN
10
62.230000
20
3.735000
42
1
0
VERTEX
8
21_BESTUECKUNGOBEN
10
62.230000
20
3.885000
0
SEQEND
0
POLYLINE
8
21_BESTUECKUNGOBEN
66
1
40
0.150000
41
0.150000
0
VERTEX
8
21_BESTUECKUNGOBEN
10
62.865000
20
4.520000
42
1
0
VERTEX
8
21_BESTUECKUNGOBEN
10
62.865000
20
4.370000
42
1
0
VERTEX
8
21_BESTUECKUNGOBEN
10
62.865000
20
4.520000
0
SEQEND
0
POLYLINE
8
21_BESTUECKUNGOBEN
66
1
40
0.300000
41
0.300000
0
VERTEX
8
21_BESTUECKUNGOBEN
10
62.230000
20
3.810000
0
VERTEX
8
21_BESTUECKUNGOBEN
10
62.865000
20
4.445000
0
SEQEND
0
POLYLINE
8
21_BESTUECKUNGOBEN
66
1
40
0.150000
41
0.150000
0
VERTEX
8
21_BESTUECKUNGOBEN
10
62.865000
20
5.790000
42
1
0
VERTEX
8
21_BESTUECKUNGOBEN
10
62.865000
20
5.640000
42
1
0
VERTEX
8
21_BESTUECKUNGOBEN
10
62.865000
20
5.790000
0
SEQEND
0
POLYLINE
8
21_BESTUECKUNGOBEN
66
1
40
0.150000
41
0.150000
0
VERTEX
8
21_BESTUECKUNGOBEN
10
62.230000
20
6.425000
42
1
0
VERTEX
8
21_BESTUECKUNGOBEN
10
62.230000
20
6.275000
42
1
0
VERTEX
8
21_BESTUECKUNGOBEN
10
62.230000
20
6.425000
0
SEQEND
0
POLYLINE
8
21_BESTUECKUNGOBEN
66
1
40
0.300000
41
0.300000
0
VERTEX
8
21_BESTUECKUNGOBEN
10
62.865000
20
5.715000
0
VERTEX
8
21_BESTUECKUNGOBEN
10
62.230000
20
6.350000
0
SEQEND
0
POLYLINE
8
21_BESTUECKUNGOBEN
66
1
40
0.150000
41
0.150000
0
VERTEX
8
21_BESTUECKUNGOBEN
10
60.960000
20
6.425000
42
1
0
VERTEX
8
21_BESTUECKUNGOBEN
10
60.960000
20
6.275000
42
1
0
VERTEX
8
21_BESTUECKUNGOBEN
10
60.960000
20
6.425000
0
SEQEND
0
POLYLINE
8
21_BESTUECKUNGOBEN
66
1
40
0.150000
41
0.150000
0
VERTEX
8
21_BESTUECKUNGOBEN
10
62.230000
20
6.425000
42
1
0
VERTEX
8
21_BESTUECKUNGOBEN
10
62.230000
20
6.275000
42
1
0
VERTEX
8
21_BESTUECKUNGOBEN
10
62.230000
20
6.425000
0
SEQEND
0
POLYLINE
8
21_BESTUECKUNGOBEN
66
1
40
0.300000
41
0.300000
0
VERTEX
8
21_BESTUECKUNGOBEN
10
60.960000
20
6.350000
0
VERTEX
8
21_BESTUECKUNGOBEN
10
62.230000
20
6.350000
0
SEQEND
0
POLYLINE
8
21_BESTUECKUNGOBEN
66
1
40
0.150000
41
0.150000
0
VERTEX
8
21_BESTUECKUNGOBEN
10
60.325000
20
4.520000
42
1
0
VERTEX
8
21_BESTUECKUNGOBEN
10
60.325000
20
4.370000
42
1
0
VERTEX
8
21_BESTUECKUNGOBEN
10
60.325000
20
4.520000
0
SEQEND
0
POLYLINE
8
21_BESTUECKUNGOBEN
66
1
40
0.150000
41
0.150000
0
VERTEX
8
21_BESTUECKUNGOBEN
10
59.690000
20
3.885000
42
1
0
VERTEX
8
21_BESTUECKUNGOBEN
10
59.690000
20
3.735000
42
1
0
VERTEX
8
21_BESTUECKUNGOBEN
10
59.690000
20
3.885000
0
SEQEND
0
POLYLINE
8
21_BESTUECKUNGOBEN
66
1
40
0.300000
41
0.300000
0
VERTEX
8
21_BESTUECKUNGOBEN
10
60.325000
20
4.445000
0
VERTEX
8
21_BESTUECKUNGOBEN
10
59.690000
20
3.810000
0
SEQEND
0
POLYLINE
8
21_BESTUECKUNGOBEN
66
1
40
0.150000
41
0.150000
0
VERTEX
8
21_BESTUECKUNGOBEN
10
59.690000
20
3.885000
42
1
0
VERTEX
8
21_BESTUECKUNGOBEN
10
59.690000
20
3.735000
42
1
0
VERTEX
8
21_BESTUECKUNGOBEN
10
59.690000
20
3.885000
0
SEQEND
0
POLYLINE
8
21_BESTUECKUNGOBEN
66
1
40
0.150000
41
0.150000
0
VERTEX
8
21_BESTUECKUNGOBEN
10
58.420000
20
3.885000
42
1
0
VERTEX
8
21_BESTUECKUNGOBEN
10
58.420000
20
3.735000
42
1
0
VERTEX
8
21_BESTUECKUNGOBEN
10
58.420000
20
3.885000
0
SEQEND
0
POLYLINE
8
21_BESTUECKUNGOBEN
66
1
40
0.300000
41
0.300000
0
VERTEX
8
21_BESTUECKUNGOBEN
10
59.690000
20
3.810000
0
VERTEX
8
21_BESTUECKUNGOBEN
10
58.420000
20
3.810000
0
SEQEND
0
POLYLINE
8
21_BESTUECKUNGOBEN
66
1
40
0.150000
41
0.150000
0
VERTEX
8
21_BESTUECKUNGOBEN
10
58.420000
20
3.885000
42
1
0
VERTEX
8
21_BESTUECKUNGOBEN
10
58.420000
20
3.735000
42
1
0
VERTEX
8
21_BESTUECKUNGOBEN
10
58.420000
20
3.885000
0
SEQEND
0
POLYLINE
8
21_BESTUECKUNGOBEN
66
1
40
0.150000
41
0.150000
0
VERTEX
8
21_BESTUECKUNGOBEN
10
57.785000
20
4.520000
42
1
0
VERTEX
8
21_BESTUECKUNGOBEN
10
57.785000
20
4.370000
42
1
0
VERTEX
8
21_BESTUECKUNGOBEN
10
57.785000
20
4.520000
0
SEQEND
0
POLYLINE
8
21_BESTUECKUNGOBEN
66
1
40
0.300000
41
0.300000
0
VERTEX
8
21_BESTUECKUNGOBEN
10
58.420000
20
3.810000
0
VERTEX
8
21_BESTUECKUNGOBEN
10
57.785000
20
4.445000
0
SEQEND
0
POLYLINE
8
21_BESTUECKUNGOBEN
66
1
40
0.150000
41
0.150000
0
VERTEX
8
21_BESTUECKUNGOBEN
10
57.785000
20
4.520000
42
1
0
VERTEX
8
21_BESTUECKUNGOBEN
10
57.785000
20
4.370000
42
1
0
VERTEX
8
21_BESTUECKUNGOBEN
10
57.785000
20
4.520000
0
SEQEND
0
POLYLINE
8
21_BESTUECKUNGOBEN
66
1
40
0.150000
41
0.150000
0
VERTEX
8
21_BESTUECKUNGOBEN
10
57.785000
20
5.790000
42
1
0
VERTEX
8
21_BESTUECKUNGOBEN
10
57.785000
20
5.640000
42
1
0
VERTEX
8
21_BESTUECKUNGOBEN
10
57.785000
20
5.790000
0
SEQEND
0
POLYLINE
8
21_BESTUECKUNGOBEN
66
1
40
0.300000
41
0.300000
0
VERTEX
8
21_BESTUECKUNGOBEN
10
57.785000
20
4.445000
0
VERTEX
8
21_BESTUECKUNGOBEN
10
57.785000
20
5.715000
0
SEQEND
0
POLYLINE
8
21_BESTUECKUNGOBEN
66
1
40
0.150000
41
0.150000
0
VERTEX
8
21_BESTUECKUNGOBEN
10
57.785000
20
5.790000
42
1
0
VERTEX
8
21_BESTUECKUNGOBEN
10
57.785000
20
5.640000
42
1
0
VERTEX
8
21_BESTUECKUNGOBEN
10
57.785000
20
5.790000
0
SEQEND
0
POLYLINE
8
21_BESTUECKUNGOBEN
66
1
40
0.150000
41
0.150000
0
VERTEX
8
21_BESTUECKUNGOBEN
10
58.420000
20
6.425000
42
1
0
VERTEX
8
21_BESTUECKUNGOBEN
10
58.420000
20
6.275000
42
1
0
VERTEX
8
21_BESTUECKUNGOBEN
10
58.420000
20
6.425000
0
SEQEND
0
POLYLINE
8
21_BESTUECKUNGOBEN
66
1
40
0.300000
41
0.300000
0
VERTEX
8
21_BESTUECKUNGOBEN
10
57.785000
20
5.715000
0
VERTEX
8
21_BESTUECKUNGOBEN
10
58.420000
20
6.350000
0
SEQEND
0
POLYLINE
8
21_BESTUECKUNGOBEN
66
1
40
0.150000
41
0.150000
0
VERTEX
8
21_BESTUECKUNGOBEN
10
58.420000
20
6.425000
42
1
0
VERTEX
8
21_BESTUECKUNGOBEN
10
58.420000
20
6.275000
42
1
0
VERTEX
8
21_BESTUECKUNGOBEN
10
58.420000
20
6.425000
0
SEQEND
0
POLYLINE
8
21_BESTUECKUNGOBEN
66
1
40
0.150000
41
0.150000
0
VERTEX
8
21_BESTUECKUNGOBEN
10
59.690000
20
6.425000
42
1
0
VERTEX
8
21_BESTUECKUNGOBEN
10
59.690000
20
6.275000
42
1
0
VERTEX
8
21_BESTUECKUNGOBEN
10
59.690000
20
6.425000
0
SEQEND
0
POLYLINE
8
21_BESTUECKUNGOBEN
66
1
40
0.300000
41
0.300000
0
VERTEX
8
21_BESTUECKUNGOBEN
10
58.420000
20
6.350000
0
VERTEX
8
21_BESTUECKUNGOBEN
10
59.690000
20
6.350000
0
SEQEND
0
POLYLINE
8
21_BESTUECKUNGOBEN
66
1
40
0.150000
41
0.150000
0
VERTEX
8
21_BESTUECKUNGOBEN
10
59.690000
20
6.425000
42
1
0
VERTEX
8
21_BESTUECKUNGOBEN
10
59.690000
20
6.275000
42
1
0
VERTEX
8
21_BESTUECKUNGOBEN
10
59.690000
20
6.425000
0
SEQEND
0
POLYLINE
8
21_BESTUECKUNGOBEN
66
1
40
0.150000
41
0.150000
0
VERTEX
8
21_BESTUECKUNGOBEN
10
60.325000
20
5.790000
42
1
0
VERTEX
8
21_BESTUECKUNGOBEN
10
60.325000
20
5.640000
42
1
0
VERTEX
8
21_BESTUECKUNGOBEN
10
60.325000
20
5.790000
0
SEQEND
0
POLYLINE
8
21_BESTUECKUNGOBEN
66
1
40
0.300000
41
0.300000
0
VERTEX
8
21_BESTUECKUNGOBEN
10
59.690000
20
6.350000
0
VERTEX
8
21_BESTUECKUNGOBEN
10
60.325000
20
5.715000
0
SEQEND
0
POLYLINE
8
21_BESTUECKUNGOBEN
66
1
40
0.150000
41
0.150000
0
VERTEX
8
21_BESTUECKUNGOBEN
10
62.865000
20
7.060000
42
1
0
VERTEX
8
21_BESTUECKUNGOBEN
10
62.865000
20
6.910000
42
1
0
VERTEX
8
21_BESTUECKUNGOBEN
10
62.865000
20
7.060000
0
SEQEND
0
POLYLINE
8
21_BESTUECKUNGOBEN
66
1
40
0.150000
41
0.150000
0
VERTEX
8
21_BESTUECKUNGOBEN
10
52.705000
20
7.060000
42
1
0
VERTEX
8
21_BESTUECKUNGOBEN
10
52.705000
20
6.910000
42
1
0
VERTEX
8
21_BESTUECKUNGOBEN
10
52.705000
20
7.060000
0
SEQEND
0
POLYLINE
8
21_BESTUECKUNGOBEN
66
1
40
0.300000
41
0.300000
0
VERTEX
8
21_BESTUECKUNGOBEN
10
62.865000
20
6.985000
0
VERTEX
8
21_BESTUECKUNGOBEN
10
52.705000
20
6.985000
0
SEQEND
0
POLYLINE
8
21_BESTUECKUNGOBEN
66
1
40
0.150000
41
0.150000
0
VERTEX
8
21_BESTUECKUNGOBEN
10
52.705000
20
7.060000
42
1
0
VERTEX
8
21_BESTUECKUNGOBEN
10
52.705000
20
6.910000
42
1
0
VERTEX
8
21_BESTUECKUNGOBEN
10
52.705000
20
7.060000
0
SEQEND
0
POLYLINE
8
21_BESTUECKUNGOBEN
66
1
40
0.150000
41
0.150000
0
VERTEX
8
21_BESTUECKUNGOBEN
10
52.705000
20
12.140000
42
1
0
VERTEX
8
21_BESTUECKUNGOBEN
10
52.705000
20
11.990000
42
1
0
VERTEX
8
21_BESTUECKUNGOBEN
10
52.705000
20
12.140000
0
SEQEND
0
POLYLINE
8
21_BESTUECKUNGOBEN
66
1
40
0.300000
41
0.300000
0
VERTEX
8
21_BESTUECKUNGOBEN
10
52.705000
20
6.985000
0
VERTEX
8
21_BESTUECKUNGOBEN
10
52.705000
20
12.065000
0
SEQEND
0
POLYLINE
8
21_BESTUECKUNGOBEN
66
1
40
0.150000
41
0.150000
0
VERTEX
8
21_BESTUECKUNGOBEN
10
52.705000
20
12.140000
42
1
0
VERTEX
8
21_BESTUECKUNGOBEN
10
52.705000
20
11.990000
42
1
0
VERTEX
8
21_BESTUECKUNGOBEN
10
52.705000
20
12.140000
0
SEQEND
0
POLYLINE
8
21_BESTUECKUNGOBEN
66
1
40
0.150000
41
0.150000
0
VERTEX
8
21_BESTUECKUNGOBEN
10
62.865000
20
12.140000
42
1
0
VERTEX
8
21_BESTUECKUNGOBEN
10
62.865000
20
11.990000
42
1
0
VERTEX
8
21_BESTUECKUNGOBEN
10
62.865000
20
12.140000
0
SEQEND
0
POLYLINE
8
21_BESTUECKUNGOBEN
66
1
40
0.300000
41
0.300000
0
VERTEX
8
21_BESTUECKUNGOBEN
10
52.705000
20
12.065000
0
VERTEX
8
21_BESTUECKUNGOBEN
10
62.865000
20
12.065000
0
SEQEND
0
POLYLINE
8
21_BESTUECKUNGOBEN
66
1
40
0.150000
41
0.150000
0
VERTEX
8
21_BESTUECKUNGOBEN
10
62.865000
20
12.140000
42
1
0
VERTEX
8
21_BESTUECKUNGOBEN
10
62.865000
20
11.990000
42
1
0
VERTEX
8
21_BESTUECKUNGOBEN
10
62.865000
20
12.140000
0
SEQEND
0
POLYLINE
8
21_BESTUECKUNGOBEN
66
1
40
0.150000
41
0.150000
0
VERTEX
8
21_BESTUECKUNGOBEN
10
62.865000
20
7.060000
42
1
0
VERTEX
8
21_BESTUECKUNGOBEN
10
62.865000
20
6.910000
42
1
0
VERTEX
8
21_BESTUECKUNGOBEN
10
62.865000
20
7.060000
0
SEQEND
0
POLYLINE
8
21_BESTUECKUNGOBEN
66
1
40
0.300000
41
0.300000
0
VERTEX
8
21_BESTUECKUNGOBEN
10
62.865000
20
12.065000
0
VERTEX
8
21_BESTUECKUNGOBEN
10
62.865000
20
6.985000
0
SEQEND
0
TEXT
8
21_BESTUECKUNGOBEN
50
0.000000
10
59.265000
20
13.240000
40
2.000000
1
S1
0
POLYLINE
8
21_BESTUECKUNGOBEN
66
1
40
0.150000
41
0.150000
0
VERTEX
8
21_BESTUECKUNGOBEN
10
48.895000
20
21.030000
42
1
0
VERTEX
8
21_BESTUECKUNGOBEN
10
48.895000
20
20.880000
42
1
0
VERTEX
8
21_BESTUECKUNGOBEN
10
48.895000
20
21.030000
0
SEQEND
0
POLYLINE
8
21_BESTUECKUNGOBEN
66
1
40
0.150000
41
0.150000
0
VERTEX
8
21_BESTUECKUNGOBEN
10
40.005000
20
21.030000
42
1
0
VERTEX
8
21_BESTUECKUNGOBEN
10
40.005000
20
20.880000
42
1
0
VERTEX
8
21_BESTUECKUNGOBEN
10
40.005000
20
21.030000
0
SEQEND
0
POLYLINE
8
21_BESTUECKUNGOBEN
66
1
40
0.300000
41
0.300000
0
VERTEX
8
21_BESTUECKUNGOBEN
10
48.895000
20
20.955000
0
VERTEX
8
21_BESTUECKUNGOBEN
10
40.005000
20
20.955000
0
SEQEND
0
POLYLINE
8
21_BESTUECKUNGOBEN
66
1
40
0.150000
41
0.150000
0
VERTEX
8
21_BESTUECKUNGOBEN
10
40.005000
20
21.030000
42
1
0
VERTEX
8
21_BESTUECKUNGOBEN
10
40.005000
20
20.880000
42
1
0
VERTEX
8
21_BESTUECKUNGOBEN
10
40.005000
20
21.030000
0
SEQEND
0
POLYLINE
8
21_BESTUECKUNGOBEN
66
1
40
0.150000
41
0.150000
0
VERTEX
8
21_BESTUECKUNGOBEN
10
40.005000
20
15.950000
42
1
0
VERTEX
8
21_BESTUECKUNGOBEN
10
40.005000
20
15.800000
42
1
0
VERTEX
8
21_BESTUECKUNGOBEN
10
40.005000
20
15.950000
0
SEQEND
0
POLYLINE
8
21_BESTUECKUNGOBEN
66
1
40
0.300000
41
0.300000
0
VERTEX
8
21_BESTUECKUNGOBEN
10
40.005000
20
20.955000
0
VERTEX
8
21_BESTUECKUNGOBEN
10
40.005000
20
15.875000
0
SEQEND
0
POLYLINE
8
21_BESTUECKUNGOBEN
66
1
40
0.150000
41
0.150000
0
VERTEX
8
21_BESTUECKUNGOBEN
10
40.005000
20
15.950000
42
1
0
VERTEX
8
21_BESTUECKUNGOBEN
10
40.005000
20
15.800000
42
1
0
VERTEX
8
21_BESTUECKUNGOBEN
10
40.005000
20
15.950000
0
SEQEND
0
POLYLINE
8
21_BESTUECKUNGOBEN
66
1
40
0.150000
41
0.150000
0
VERTEX
8
21_BESTUECKUNGOBEN
10
48.895000
20
15.950000
42
1
0
VERTEX
8
21_BESTUECKUNGOBEN
10
48.895000
20
15.800000
42
1
0
VERTEX
8
21_BESTUECKUNGOBEN
10
48.895000
20
15.950000
0
SEQEND
0
POLYLINE
8
21_BESTUECKUNGOBEN
66
1
40
0.300000
41
0.300000
0
VERTEX
8
21_BESTUECKUNGOBEN
10
40.005000
20
15.875000
0
VERTEX
8
21_BESTUECKUNGOBEN
10
48.895000
20
15.875000
0
SEQEND
0
POLYLINE
8
21_BESTUECKUNGOBEN
66
1
40
0.150000
41
0.150000
0
VERTEX
8
21_BESTUECKUNGOBEN
10
48.895000
20
15.950000
42
1
0
VERTEX
8
21_BESTUECKUNGOBEN
10
48.895000
20
15.800000
42
1
0
VERTEX
8
21_BESTUECKUNGOBEN
10
48.895000
20
15.950000
0
SEQEND
0
POLYLINE
8
21_BESTUECKUNGOBEN
66
1
40
0.150000
41
0.150000
0
VERTEX
8
21_BESTUECKUNGOBEN
10
48.895000
20
17.855000
42
1
0
VERTEX
8
21_BESTUECKUNGOBEN
10
48.895000
20
17.705000
42
1
0
VERTEX
8
21_BESTUECKUNGOBEN
10
48.895000
20
17.855000
0
SEQEND
0
POLYLINE
8
21_BESTUECKUNGOBEN
66
1
40
0.300000
41
0.300000
0
VERTEX
8
21_BESTUECKUNGOBEN
10
48.895000
20
15.875000
0
VERTEX
8
21_BESTUECKUNGOBEN
10
48.895000
20
17.780000
0
SEQEND
0
POLYLINE
8
21_BESTUECKUNGOBEN
66
1
40
0.150000
41
0.150000
0
VERTEX
8
21_BESTUECKUNGOBEN
10
48.895000
20
19.125000
42
1
0
VERTEX
8
21_BESTUECKUNGOBEN
10
48.895000
20
18.975000
42
1
0
VERTEX
8
21_BESTUECKUNGOBEN
10
48.895000
20
19.125000
0
SEQEND
0
POLYLINE
8
21_BESTUECKUNGOBEN
66
1
40
0.150000
41
0.150000
0
VERTEX
8
21_BESTUECKUNGOBEN
10
48.895000
20
21.030000
42
1
0
VERTEX
8
21_BESTUECKUNGOBEN
10
48.895000
20
20.880000
42
1
0
VERTEX
8
21_BESTUECKUNGOBEN
10
48.895000
20
21.030000
0
SEQEND
0
POLYLINE
8
21_BESTUECKUNGOBEN
66
1
40
0.300000
41
0.300000
0
VERTEX
8
21_BESTUECKUNGOBEN
10
48.895000
20
19.050000
0
VERTEX
8
21_BESTUECKUNGOBEN
10
48.895000
20
20.955000
0
SEQEND
0
TEXT
8
21_BESTUECKUNGOBEN
50
0.000000
10
42.352000
20
16.186000
40
2.000000
1
IC1
0
TEXT
8
21_BESTUECKUNGOBEN
50
0.000000
10
37.003000
20
18.371000
40
2.000000
1
LM3909
0
POLYLINE
8
21_BESTUECKUNGOBEN
66
1
40
0.150000
41
0.150000
0
VERTEX
8
21_BESTUECKUNGOBEN
10
48.895000
20
17.855000
42
1
0
VERTEX
8
21_BESTUECKUNGOBEN
10
48.895000
20
17.705000
42
1
0
VERTEX
8
21_BESTUECKUNGOBEN
10
48.895000
20
17.855000
0
SEQEND
0
POLYLINE
8
21_BESTUECKUNGOBEN
66
1
40
0.150000
41
0.150000
0
VERTEX
8
21_BESTUECKUNGOBEN
10
47.625000
20
18.490000
42
1
0
VERTEX
8
21_BESTUECKUNGOBEN
10
47.625000
20
18.340000
42
1
0
VERTEX
8
21_BESTUECKUNGOBEN
10
47.625000
20
18.490000
0
SEQEND
0
POLYLINE
8
21_BESTUECKUNGOBEN
66
1
40
0.300000
41
0.300000
0
VERTEX
8
21_BESTUECKUNGOBEN
10
48.895000
20
17.780000
0
VERTEX
8
21_BESTUECKUNGOBEN
10
47.625000
20
18.415000
0
SEQEND
0
POLYLINE
8
21_BESTUECKUNGOBEN
66
1
40
0.150000
41
0.150000
0
VERTEX
8
21_BESTUECKUNGOBEN
10
47.625000
20
18.490000
42
1
0
VERTEX
8
21_BESTUECKUNGOBEN
10
47.625000
20
18.340000
42
1
0
VERTEX
8
21_BESTUECKUNGOBEN
10
47.625000
20
18.490000
0
SEQEND
0
POLYLINE
8
21_BESTUECKUNGOBEN
66
1
40
0.150000
41
0.150000
0
VERTEX
8
21_BESTUECKUNGOBEN
10
48.895000
20
19.125000
42
1
0
VERTEX
8
21_BESTUECKUNGOBEN
10
48.895000
20
18.975000
42
1
0
VERTEX
8
21_BESTUECKUNGOBEN
10
48.895000
20
19.125000
0
SEQEND
0
POLYLINE
8
21_BESTUECKUNGOBEN
66
1
40
0.300000
41
0.300000
0
VERTEX
8
21_BESTUECKUNGOBEN
10
47.625000
20
18.415000
0
VERTEX
8
21_BESTUECKUNGOBEN
10
48.895000
20
19.050000
0
SEQEND
0
POLYLINE
8
21_BESTUECKUNGOBEN
66
1
40
0.300000
41
0.300000
0
VERTEX
8
21_BESTUECKUNGOBEN
10
38.100000
20
22.860000
42
1.000000
0
VERTEX
8
21_BESTUECKUNGOBEN
10
30.480000
20
22.860000
42
1.000000
0
VERTEX
8
21_BESTUECKUNGOBEN
10
38.100000
20
22.860000
0
SEQEND
0
POLYLINE
8
21_BESTUECKUNGOBEN
66
1
40
0.150000
41
0.150000
0
VERTEX
8
21_BESTUECKUNGOBEN
10
36.830000
20
21.665000
42
1
0
VERTEX
8
21_BESTUECKUNGOBEN
10
36.830000
20
21.515000
42
1
0
VERTEX
8
21_BESTUECKUNGOBEN
10
36.830000
20
21.665000
0
SEQEND
0
POLYLINE
8
21_BESTUECKUNGOBEN
66
1
40
0.150000
41
0.150000
0
VERTEX
8
21_BESTUECKUNGOBEN
10
35.560000
20
21.665000
42
1
0
VERTEX
8
21_BESTUECKUNGOBEN
10
35.560000
20
21.515000
42
1
0
VERTEX
8
21_BESTUECKUNGOBEN
10
35.560000
20
21.665000
0
SEQEND
0
POLYLINE
8
21_BESTUECKUNGOBEN
66
1
40
0.300000
41
0.300000
0
VERTEX
8
21_BESTUECKUNGOBEN
10
36.830000
20
21.590000
0
VERTEX
8
21_BESTUECKUNGOBEN
10
35.560000
20
21.590000
0
SEQEND
0
POLYLINE
8
21_BESTUECKUNGOBEN
66
1
40
0.150000
41
0.150000
0
VERTEX
8
21_BESTUECKUNGOBEN
10
36.195000
20
22.300000
42
1
0
VERTEX
8
21_BESTUECKUNGOBEN
10
36.195000
20
22.150000
42
1
0
VERTEX
8
21_BESTUECKUNGOBEN
10
36.195000
20
22.300000
0
SEQEND
0
POLYLINE
8
21_BESTUECKUNGOBEN
66
1
40
0.150000
41
0.150000
0
VERTEX
8
21_BESTUECKUNGOBEN
10
36.195000
20
21.030000
42
1
0
VERTEX
8
21_BESTUECKUNGOBEN
10
36.195000
20
20.880000
42
1
0
VERTEX
8
21_BESTUECKUNGOBEN
10
36.195000
20
21.030000
0
SEQEND
0
POLYLINE
8
21_BESTUECKUNGOBEN
66
1
40
0.300000
41
0.300000
0
VERTEX
8
21_BESTUECKUNGOBEN
10
36.195000
20
22.225000
0
VERTEX
8
21_BESTUECKUNGOBEN
10
36.195000
20
20.955000
0
SEQEND
0
TEXT
8
21_BESTUECKUNGOBEN
50
90.000000
10
29.940000
20
23.705000
40
2.000000
1
C2
0
POLYLINE
8
23_UMRISS
66
1
40
0.150000
41
0.150000
0
VERTEX
8
23_UMRISS
10
17.780000
20
27.380000
42
1
0
VERTEX
8
23_UMRISS
10
17.780000
20
27.230000
42
1
0
VERTEX
8
23_UMRISS
10
17.780000
20
27.380000
0
SEQEND
0
POLYLINE
8
23_UMRISS
66
1
40
0.150000
41
0.150000
0
VERTEX
8
23_UMRISS
10
17.780000
20
-15.800000
42
1
0
VERTEX
8
23_UMRISS
10
17.780000
20
-15.950000
42
1
0
VERTEX
8
23_UMRISS
10
17.780000
20
-15.800000
0
SEQEND
0
POLYLINE
8
23_UMRISS
66
1
40
0.300000
41
0.300000
0
VERTEX
8
23_UMRISS
10
17.780000
20
27.305000
0
VERTEX
8
23_UMRISS
10
17.780000
20
-15.875000
0
SEQEND
0
POLYLINE
8
23_UMRISS
66
1
40
0.150000
41
0.150000
0
VERTEX
8
23_UMRISS
10
17.780000
20
-15.800000
42
1
0
VERTEX
8
23_UMRISS
10
17.780000
20
-15.950000
42
1
0
VERTEX
8
23_UMRISS
10
17.780000
20
-15.800000
0
SEQEND
0
POLYLINE
8
23_UMRISS
66
1
40
0.150000
41
0.150000
0
VERTEX
8
23_UMRISS
10
74.930000
20
-15.800000
42
1
0
VERTEX
8
23_UMRISS
10
74.930000
20
-15.950000
42
1
0
VERTEX
8
23_UMRISS
10
74.930000
20
-15.800000
0
SEQEND
0
POLYLINE
8
23_UMRISS
66
1
40
0.300000
41
0.300000
0
VERTEX
8
23_UMRISS
10
17.780000
20
-15.875000
0
VERTEX
8
23_UMRISS
10
74.930000
20
-15.875000
0
SEQEND
0
POLYLINE
8
23_UMRISS
66
1
40
0.150000
41
0.150000
0
VERTEX
8
23_UMRISS
10
74.930000
20
-15.800000
42
1
0
VERTEX
8
23_UMRISS
10
74.930000
20
-15.950000
42
1
0
VERTEX
8
23_UMRISS
10
74.930000
20
-15.800000
0
SEQEND
0
POLYLINE
8
23_UMRISS
66
1
40
0.150000
41
0.150000
0
VERTEX
8
23_UMRISS
10
74.930000
20
27.380000
42
1
0
VERTEX
8
23_UMRISS
10
74.930000
20
27.230000
42
1
0
VERTEX
8
23_UMRISS
10
74.930000
20
27.380000
0
SEQEND
0
POLYLINE
8
23_UMRISS
66
1
40
0.300000
41
0.300000
0
VERTEX
8
23_UMRISS
10
74.930000
20
-15.875000
0
VERTEX
8
23_UMRISS
10
74.930000
20
27.305000
0
SEQEND
0
POLYLINE
8
23_UMRISS
66
1
40
0.150000
41
0.150000
0
VERTEX
8
23_UMRISS
10
74.930000
20
27.380000
42
1
0
VERTEX
8
23_UMRISS
10
74.930000
20
27.230000
42
1
0
VERTEX
8
23_UMRISS
10
74.930000
20
27.380000
0
SEQEND
0
POLYLINE
8
23_UMRISS
66
1
40
0.150000
41
0.150000
0
VERTEX
8
23_UMRISS
10
17.780000
20
27.380000
42
1
0
VERTEX
8
23_UMRISS
10
17.780000
20
27.230000
42
1
0
VERTEX
8
23_UMRISS
10
17.780000
20
27.380000
0
SEQEND
0
POLYLINE
8
23_UMRISS
66
1
40
0.300000
41
0.300000
0
VERTEX
8
23_UMRISS
10
74.930000
20
27.305000
0
VERTEX
8
23_UMRISS
10
17.780000
20
27.305000
0
SEQEND
0
POLYLINE
8
23_UMRISS
66
1
40
0.150000
41
0.150000
0
VERTEX
8
23_UMRISS
10
-41.910000
20
14.045000
42
1
0
VERTEX
8
23_UMRISS
10
-41.910000
20
13.895000
42
1
0
VERTEX
8
23_UMRISS
10
-41.910000
20
14.045000
0
SEQEND
0
POLYLINE
8
23_UMRISS
66
1
40
0.150000
41
0.150000
0
VERTEX
8
23_UMRISS
10
-41.275000
20
14.045000
42
1
0
VERTEX
8
23_UMRISS
10
-41.275000
20
13.895000
42
1
0
VERTEX
8
23_UMRISS
10
-41.275000
20
14.045000
0
SEQEND
0
POLYLINE
8
23_UMRISS
66
1
40
0.300000
41
0.300000
0
VERTEX
8
23_UMRISS
10
-41.910000
20
13.970000
0
VERTEX
8
23_UMRISS
10
-41.275000
20
13.970000
0
SEQEND
0
POLYLINE
8
23_UMRISS
66
1
40
0.150000
41
0.150000
0
VERTEX
8
23_UMRISS
10
-41.275000
20
14.045000
42
1
0
VERTEX
8
23_UMRISS
10
-41.275000
20
13.895000
42
1
0
VERTEX
8
23_UMRISS
10
-41.275000
20
14.045000
0
SEQEND
0
POLYLINE
8
23_UMRISS
66
1
40
0.150000
41
0.150000
0
VERTEX
8
23_UMRISS
10
-41.910000
20
14.045000
42
1
0
VERTEX
8
23_UMRISS
10
-41.910000
20
13.895000
42
1
0
VERTEX
8
23_UMRISS
10
-41.910000
20
14.045000
0
SEQEND
0
POLYLINE
8
23_UMRISS
66
1
40
0.300000
41
0.300000
0
VERTEX
8
23_UMRISS
10
-41.275000
20
13.970000
0
VERTEX
8
23_UMRISS
10
-41.910000
20
13.970000
0
SEQEND
0
POLYLINE
8
24_BOHRLOECHER
66
1
40
0.425000
41
0.425000
0
VERTEX
8
24_BOHRLOECHER
10
39.370000
20
25.612500
42
1
0
VERTEX
8
24_BOHRLOECHER
10
39.370000
20
25.187500
42
1
0
VERTEX
8
24_BOHRLOECHER
10
39.370000
20
25.612500
0
SEQEND
0
POLYLINE
8
24_BOHRLOECHER
66
1
40
0.425000
41
0.425000
0
VERTEX
8
24_BOHRLOECHER
10
49.530000
20
25.612500
42
1
0
VERTEX
8
24_BOHRLOECHER
10
49.530000
20
25.187500
42
1
0
VERTEX
8
24_BOHRLOECHER
10
49.530000
20
25.612500
0
SEQEND
0
POLYLINE
8
24_BOHRLOECHER
66
1
40
0.550000
41
0.550000
0
VERTEX
8
24_BOHRLOECHER
10
58.420000
20
24.405000
42
1
0
VERTEX
8
24_BOHRLOECHER
10
58.420000
20
23.855000
42
1
0
VERTEX
8
24_BOHRLOECHER
10
58.420000
20
24.405000
0
SEQEND
0
POLYLINE
8
24_BOHRLOECHER
66
1
40
0.550000
41
0.550000
0
VERTEX
8
24_BOHRLOECHER
10
55.880000
20
14.245000
42
1
0
VERTEX
8
24_BOHRLOECHER
10
55.880000
20
13.695000
42
1
0
VERTEX
8
24_BOHRLOECHER
10
55.880000
20
14.245000
0
SEQEND
0
POLYLINE
8
24_BOHRLOECHER
66
1
40
0.550000
41
0.550000
0
VERTEX
8
24_BOHRLOECHER
10
53.340000
20
24.405000
42
1
0
VERTEX
8
24_BOHRLOECHER
10
53.340000
20
23.855000
42
1
0
VERTEX
8
24_BOHRLOECHER
10
53.340000
20
24.405000
0
SEQEND
0
POLYLINE
8
24_BOHRLOECHER
66
1
40
0.425000
41
0.425000
0
VERTEX
8
24_BOHRLOECHER
10
55.880000
20
-4.232500
42
1
0
VERTEX
8
24_BOHRLOECHER
10
55.880000
20
-4.657500
42
1
0
VERTEX
8
24_BOHRLOECHER
10
55.880000
20
-4.232500
0
SEQEND
0
POLYLINE
8
24_BOHRLOECHER
66
1
40
0.425000
41
0.425000
0
VERTEX
8
24_BOHRLOECHER
10
55.880000
20
5.927500
42
1
0
VERTEX
8
24_BOHRLOECHER
10
55.880000
20
5.502500
42
1
0
VERTEX
8
24_BOHRLOECHER
10
55.880000
20
5.927500
0
SEQEND
0
POLYLINE
8
24_BOHRLOECHER
66
1
40
0.500000
41
0.500000
0
VERTEX
8
24_BOHRLOECHER
10
64.770000
20
-6.735000
42
1
0
VERTEX
8
24_BOHRLOECHER
10
64.770000
20
-7.235000
42
1
0
VERTEX
8
24_BOHRLOECHER
10
64.770000
20
-6.735000
0
SEQEND
0
POLYLINE
8
24_BOHRLOECHER
66
1
40
0.500000
41
0.500000
0
VERTEX
8
24_BOHRLOECHER
10
69.850000
20
-6.735000
42
1
0
VERTEX
8
24_BOHRLOECHER
10
69.850000
20
-7.235000
42
1
0
VERTEX
8
24_BOHRLOECHER
10
69.850000
20
-6.735000
0
SEQEND
0
POLYLINE
8
24_BOHRLOECHER
66
1
40
0.500000
41
0.500000
0
VERTEX
8
24_BOHRLOECHER
10
27.940000
20
-6.735000
42
1
0
VERTEX
8
24_BOHRLOECHER
10
27.940000
20
-7.235000
42
1
0
VERTEX
8
24_BOHRLOECHER
10
27.940000
20
-6.735000
0
SEQEND
0
POLYLINE
8
24_BOHRLOECHER
66
1
40
0.500000
41
0.500000
0
VERTEX
8
24_BOHRLOECHER
10
22.860000
20
-6.735000
42
1
0
VERTEX
8
24_BOHRLOECHER
10
22.860000
20
-7.235000
42
1
0
VERTEX
8
24_BOHRLOECHER
10
22.860000
20
-6.735000
0
SEQEND
0
POLYLINE
8
24_BOHRLOECHER
66
1
40
0.500000
41
0.500000
0
VERTEX
8
24_BOHRLOECHER
10
64.770000
20
18.665000
42
1
0
VERTEX
8
24_BOHRLOECHER
10
64.770000
20
18.165000
42
1
0
VERTEX
8
24_BOHRLOECHER
10
64.770000
20
18.665000
0
SEQEND
0
POLYLINE
8
24_BOHRLOECHER
66
1
40
0.500000
41
0.500000
0
VERTEX
8
24_BOHRLOECHER
10
69.850000
20
18.665000
42
1
0
VERTEX
8
24_BOHRLOECHER
10
69.850000
20
18.165000
42
1
0
VERTEX
8
24_BOHRLOECHER
10
69.850000
20
18.665000
0
SEQEND
0
POLYLINE
8
24_BOHRLOECHER
66
1
40
0.500000
41
0.500000
0
VERTEX
8
24_BOHRLOECHER
10
43.815000
20
5.965000
42
1
0
VERTEX
8
24_BOHRLOECHER
10
43.815000
20
5.465000
42
1
0
VERTEX
8
24_BOHRLOECHER
10
43.815000
20
5.965000
0
SEQEND
0
POLYLINE
8
24_BOHRLOECHER
66
1
40
0.500000
41
0.500000
0
VERTEX
8
24_BOHRLOECHER
10
48.895000
20
5.965000
42
1
0
VERTEX
8
24_BOHRLOECHER
10
48.895000
20
5.465000
42
1
0
VERTEX
8
24_BOHRLOECHER
10
48.895000
20
5.965000
0
SEQEND
0
POLYLINE
8
24_BOHRLOECHER
66
1
40
0.500000
41
0.500000
0
VERTEX
8
24_BOHRLOECHER
10
25.400000
20
16.125000
42
1
0
VERTEX
8
24_BOHRLOECHER
10
25.400000
20
15.625000
42
1
0
VERTEX
8
24_BOHRLOECHER
10
25.400000
20
16.125000
0
SEQEND
0
POLYLINE
8
24_BOHRLOECHER
66
1
40
0.500000
41
0.500000
0
VERTEX
8
24_BOHRLOECHER
10
25.400000
20
21.205000
42
1
0
VERTEX
8
24_BOHRLOECHER
10
25.400000
20
20.705000
42
1
0
VERTEX
8
24_BOHRLOECHER
10
25.400000
20
21.205000
0
SEQEND
0
POLYLINE
8
24_BOHRLOECHER
66
1
40
0.450000
41
0.450000
0
VERTEX
8
24_BOHRLOECHER
10
61.595000
20
5.305000
42
1
0
VERTEX
8
24_BOHRLOECHER
10
61.595000
20
4.855000
42
1
0
VERTEX
8
24_BOHRLOECHER
10
61.595000
20
5.305000
0
SEQEND
0
POLYLINE
8
24_BOHRLOECHER
66
1
40
0.450000
41
0.450000
0
VERTEX
8
24_BOHRLOECHER
10
59.055000
20
5.305000
42
1
0
VERTEX
8
24_BOHRLOECHER
10
59.055000
20
4.855000
42
1
0
VERTEX
8
24_BOHRLOECHER
10
59.055000
20
5.305000
0
SEQEND
0
POLYLINE
8
24_BOHRLOECHER
66
1
40
0.650000
41
0.650000
0
VERTEX
8
24_BOHRLOECHER
10
60.325000
20
9.850000
42
1
0
VERTEX
8
24_BOHRLOECHER
10
60.325000
20
9.200000
42
1
0
VERTEX
8
24_BOHRLOECHER
10
60.325000
20
9.850000
0
SEQEND
0
POLYLINE
8
24_BOHRLOECHER
66
1
40
0.650000
41
0.650000
0
VERTEX
8
24_BOHRLOECHER
10
57.785000
20
9.850000
42
1
0
VERTEX
8
24_BOHRLOECHER
10
57.785000
20
9.200000
42
1
0
VERTEX
8
24_BOHRLOECHER
10
57.785000
20
9.850000
0
SEQEND
0
POLYLINE
8
24_BOHRLOECHER
66
1
40
0.650000
41
0.650000
0
VERTEX
8
24_BOHRLOECHER
10
55.245000
20
9.850000
42
1
0
VERTEX
8
24_BOHRLOECHER
10
55.245000
20
9.200000
42
1
0
VERTEX
8
24_BOHRLOECHER
10
55.245000
20
9.850000
0
SEQEND
0
POLYLINE
8
24_BOHRLOECHER
66
1
40
0.400000
41
0.400000
0
VERTEX
8
24_BOHRLOECHER
10
48.260000
20
22.425000
42
1
0
VERTEX
8
24_BOHRLOECHER
10
48.260000
20
22.025000
42
1
0
VERTEX
8
24_BOHRLOECHER
10
48.260000
20
22.425000
0
SEQEND
0
POLYLINE
8
24_BOHRLOECHER
66
1
40
0.400000
41
0.400000
0
VERTEX
8
24_BOHRLOECHER
10
45.720000
20
22.425000
42
1
0
VERTEX
8
24_BOHRLOECHER
10
45.720000
20
22.025000
42
1
0
VERTEX
8
24_BOHRLOECHER
10
45.720000
20
22.425000
0
SEQEND
0
POLYLINE
8
24_BOHRLOECHER
66
1
40
0.400000
41
0.400000
0
VERTEX
8
24_BOHRLOECHER
10
43.180000
20
22.425000
42
1
0
VERTEX
8
24_BOHRLOECHER
10
43.180000
20
22.025000
42
1
0
VERTEX
8
24_BOHRLOECHER
10
43.180000
20
22.425000
0
SEQEND
0
POLYLINE
8
24_BOHRLOECHER
66
1
40
0.400000
41
0.400000
0
VERTEX
8
24_BOHRLOECHER
10
40.640000
20
22.425000
42
1
0
VERTEX
8
24_BOHRLOECHER
10
40.640000
20
22.025000
42
1
0
VERTEX
8
24_BOHRLOECHER
10
40.640000
20
22.425000
0
SEQEND
0
POLYLINE
8
24_BOHRLOECHER
66
1
40
0.400000
41
0.400000
0
VERTEX
8
24_BOHRLOECHER
10
40.640000
20
14.805000
42
1
0
VERTEX
8
24_BOHRLOECHER
10
40.640000
20
14.405000
42
1
0
VERTEX
8
24_BOHRLOECHER
10
40.640000
20
14.805000
0
SEQEND
0
POLYLINE
8
24_BOHRLOECHER
66
1
40
0.400000
41
0.400000
0
VERTEX
8
24_BOHRLOECHER
10
43.180000
20
14.805000
42
1
0
VERTEX
8
24_BOHRLOECHER
10
43.180000
20
14.405000
42
1
0
VERTEX
8
24_BOHRLOECHER
10
43.180000
20
14.805000
0
SEQEND
0
POLYLINE
8
24_BOHRLOECHER
66
1
40
0.400000
41
0.400000
0
VERTEX
8
24_BOHRLOECHER
10
45.720000
20
14.805000
42
1
0
VERTEX
8
24_BOHRLOECHER
10
45.720000
20
14.405000
42
1
0
VERTEX
8
24_BOHRLOECHER
10
45.720000
20
14.805000
0
SEQEND
0
POLYLINE
8
24_BOHRLOECHER
66
1
40
0.400000
41
0.400000
0
VERTEX
8
24_BOHRLOECHER
10
48.260000
20
14.805000
42
1
0
VERTEX
8
24_BOHRLOECHER
10
48.260000
20
14.405000
42
1
0
VERTEX
8
24_BOHRLOECHER
10
48.260000
20
14.805000
0
SEQEND
0
POLYLINE
8
24_BOHRLOECHER
66
1
40
0.500000
41
0.500000
0
VERTEX
8
24_BOHRLOECHER
10
34.290000
20
25.650000
42
1
0
VERTEX
8
24_BOHRLOECHER
10
34.290000
20
25.150000
42
1
0
VERTEX
8
24_BOHRLOECHER
10
34.290000
20
25.650000
0
SEQEND
0
POLYLINE
8
24_BOHRLOECHER
66
1
40
0.500000
41
0.500000
0
VERTEX
8
24_BOHRLOECHER
10
34.290000
20
20.570000
42
1
0
VERTEX
8
24_BOHRLOECHER
10
34.290000
20
20.070000
42
1
0
VERTEX
8
24_BOHRLOECHER
10
34.290000
20
20.570000
0
SEQEND
0
ENDSEC
0
EOF
