0
SECTION
2
HEADER
9
$EXTMAX
10
74.930000
20
27.305000
9
$EXTMIN
10
-41.910000
20
-15.875000
0
ENDSEC
0
SECTION
2
TABLES
0
TABLE
2
LAYER
70
100
0
LAYER
2
0_FLAECHEUNTEN
62
1
6
CONTINUOUS
0
LAYER
2
1_LOESCHUNTEN
62
255
6
CONTINUOUS
0
LAYER
2
2_KUPFERUNTEN
62
1
6
CONTINUOUS
0
LAYER
2
3_GOLDUNTEN
62
14
6
CONTINUOUS
0
LAYER
2
4_LOETSTOPUNTEN
62
94
6
CONTINUOUS
0
LAYER
2
5_LOETPASTEUNTEN
62
250
6
CONTINUOUS
0
LAYER
2
6_KLEBERUNTEN
62
214
6
CONTINUOUS
0
LAYER
2
7_BESTUECKUNGUNTEN
62
4
6
CONTINUOUS
0
LAYER
2
8_FLAECHEINNEN
62
94
6
CONTINUOUS
0
LAYER
2
9_LOESCHINNEN
62
250
6
CONTINUOUS
0
LAYER
2
10_SONSTIGE
62
94
6
CONTINUOUS
0
LAYER
2
11_FLAECHEINNEN
62
14
6
CONTINUOUS
0
LAYER
2
12_LOESCHINNEN
62
250
6
CONTINUOUS
0
LAYER
2
13_SONSTIGE
62
14
6
CONTINUOUS
0
LAYER
2
14_FLAECHEOBEN
62
174
6
CONTINUOUS
0
LAYER
2
15_LOESCHOBEN
62
255
6
CONTINUOUS
0
LAYER
2
16_KUPFEROBEN
62
174
6
CONTINUOUS
0
LAYER
2
17_GOLDOBEN
62
14
6
CONTINUOUS
0
LAYER
2
18_LOETSTOPOBEN
62
94
6
CONTINUOUS
0
LAYER
2
19_LOETPASTEOBEN
62
250
6
CONTINUOUS
0
LAYER
2
20_KLEBEROBEN
62
214
6
CONTINUOUS
0
LAYER
2
21_BESTUECKUNGOBEN
62
250
6
CONTINUOUS
0
LAYER
2
22_BEMASSUNG
62
253
6
CONTINUOUS
0
LAYER
2
23_UMRISS
62
11
6
CONTINUOUS
0
LAYER
2
24_BOHRLOECHER
62
14
6
CONTINUOUS
0
LAYER
2
25_FRAESEN
62
14
6
CONTINUOUS
0
LAYER
2
26_LOETPUNKTNUMMERN
62
250
6
CONTINUOUS
0
LAYER
2
27_LUFTLINIE
62
94
6
CONTINUOUS
0
LAYER
2
28_SONSTIGE
62
4
6
CONTINUOUS
0
LAYER
2
29_SONSTIGE
62
4
6
CONTINUOUS
0
LAYER
2
30_SONSTIGE
62
4
6
CONTINUOUS
0
LAYER
2
31_SONSTIGE
62
4
6
CONTINUOUS
0
LAYER
2
32_SONSTIGE
62
4
6
CONTINUOUS
0
LAYER
2
33_SONSTIGE
62
4
6
CONTINUOUS
0
LAYER
2
34_SONSTIGE
62
4
6
CONTINUOUS
0
LAYER
2
35_SONSTIGE
62
4
6
CONTINUOUS
0
LAYER
2
36_SONSTIGE
62
4
6
CONTINUOUS
0
LAYER
2
37_SONSTIGE
62
4
6
CONTINUOUS
0
LAYER
2
38_SONSTIGE
62
4
6
CONTINUOUS
0
LAYER
2
39_SONSTIGE
62
4
6
CONTINUOUS
0
LAYER
2
40_SONSTIGE
62
4
6
CONTINUOUS
0
LAYER
2
41_SONSTIGE
62
4
6
CONTINUOUS
0
LAYER
2
42_SONSTIGE
62
4
6
CONTINUOUS
0
LAYER
2
43_SONSTIGE
62
4
6
CONTINUOUS
0
LAYER
2
44_SONSTIGE
62
4
6
CONTINUOUS
0
LAYER
2
45_SONSTIGE
62
4
6
CONTINUOUS
0
LAYER
2
46_SONSTIGE
62
4
6
CONTINUOUS
0
LAYER
2
47_SONSTIGE
62
4
6
CONTINUOUS
0
LAYER
2
48_SONSTIGE
62
4
6
CONTINUOUS
0
LAYER
2
49_SONSTIGE
62
4
6
CONTINUOUS
0
LAYER
2
50_SONSTIGE
62
4
6
CONTINUOUS
0
LAYER
2
51_SONSTIGE
62
4
6
CONTINUOUS
0
LAYER
2
52_SONSTIGE
62
4
6
CONTINUOUS
0
LAYER
2
53_SONSTIGE
62
4
6
CONTINUOUS
0
LAYER
2
54_SONSTIGE
62
4
6
CONTINUOUS
0
LAYER
2
55_SONSTIGE
62
4
6
CONTINUOUS
0
LAYER
2
56_SONSTIGE
62
4
6
CONTINUOUS
0
LAYER
2
57_SONSTIGE
62
4
6
CONTINUOUS
0
LAYER
2
58_SONSTIGE
62
4
6
CONTINUOUS
0
LAYER
2
59_SONSTIGE
62
4
6
CONTINUOUS
0
LAYER
2
60_SONSTIGE
62
4
6
CONTINUOUS
0
LAYER
2
61_SONSTIGE
62
4
6
CONTINUOUS
0
LAYER
2
62_SONSTIGE
62
4
6
CONTINUOUS
0
LAYER
2
63_SONSTIGE
62
4
6
CONTINUOUS
0
LAYER
2
64_SONSTIGE
62
4
6
CONTINUOUS
0
LAYER
2
65_SONSTIGE
62
4
6
CONTINUOUS
0
LAYER
2
66_SONSTIGE
62
4
6
CONTINUOUS
0
LAYER
2
67_SONSTIGE
62
4
6
CONTINUOUS
0
LAYER
2
68_SONSTIGE
62
4
6
CONTINUOUS
0
LAYER
2
69_SONSTIGE
62
4
6
CONTINUOUS
0
LAYER
2
70_SONSTIGE
62
4
6
CONTINUOUS
0
LAYER
2
71_SONSTIGE
62
4
6
CONTINUOUS
0
LAYER
2
72_SONSTIGE
62
4
6
CONTINUOUS
0
LAYER
2
73_SONSTIGE
62
4
6
CONTINUOUS
0
LAYER
2
74_SONSTIGE
62
4
6
CONTINUOUS
0
LAYER
2
75_SONSTIGE
62
4
6
CONTINUOUS
0
LAYER
2
76_SONSTIGE
62
4
6
CONTINUOUS
0
LAYER
2
77_SONSTIGE
62
4
6
CONTINUOUS
0
LAYER
2
78_SONSTIGE
62
4
6
CONTINUOUS
0
LAYER
2
79_SONSTIGE
62
4
6
CONTINUOUS
0
LAYER
2
80_SONSTIGE
62
4
6
CONTINUOUS
0
LAYER
2
81_SONSTIGE
62
4
6
CONTINUOUS
0
LAYER
2
82_SONSTIGE
62
4
6
CONTINUOUS
0
LAYER
2
83_SONSTIGE
62
4
6
CONTINUOUS
0
LAYER
2
84_SONSTIGE
62
4
6
CONTINUOUS
0
LAYER
2
85_SONSTIGE
62
4
6
CONTINUOUS
0
LAYER
2
86_SONSTIGE
62
4
6
CONTINUOUS
0
LAYER
2
87_SONSTIGE
62
4
6
CONTINUOUS
0
LAYER
2
88_SONSTIGE
62
4
6
CONTINUOUS
0
LAYER
2
89_SONSTIGE
62
4
6
CONTINUOUS
0
LAYER
2
90_SONSTIGE
62
4
6
CONTINUOUS
0
LAYER
2
91_SONSTIGE
62
4
6
CONTINUOUS
0
LAYER
2
92_SONSTIGE
62
4
6
CONTINUOUS
0
LAYER
2
93_SONSTIGE
62
4
6
CONTINUOUS
0
LAYER
2
94_SONSTIGE
62
4
6
CONTINUOUS
0
LAYER
2
95_SONSTIGE
62
4
6
CONTINUOUS
0
LAYER
2
96_SONSTIGE
62
4
6
CONTINUOUS
0
LAYER
2
97_SONSTIGE
62
4
6
CONTINUOUS
0
LAYER
2
98_SONSTIGE
62
4
6
CONTINUOUS
0
LAYER
2
99_SONSTIGE
62
4
6
CONTINUOUS
0
ENDTAB
0
ENDSEC
0
SECTION
2
ENTITIES
0
SOLID
8
2_KUPFERUNTEN
10
40.070000
20
25.750000
11
40.070000
21
25.050000
12
38.670000
22
25.750000
13
38.670000
23
25.050000
0
SOLID
8
2_KUPFERUNTEN
10
39.720000
20
26.099999
11
40.070000
21
25.749999
12
39.020000
22
26.099999
13
38.670000
23
25.749999
0
SOLID
8
2_KUPFERUNTEN
10
40.070000
20
25.050001
11
39.720000
21
24.700001
12
38.670000
22
25.050001
13
39.020000
23
24.700001
0
SOLID
8
2_KUPFERUNTEN
10
50.230000
20
25.750000
11
50.230000
21
25.050000
12
48.830000
22
25.750000
13
48.830000
23
25.050000
0
SOLID
8
2_KUPFERUNTEN
10
49.880000
20
26.099999
11
50.230000
21
25.749999
12
49.180000
22
26.099999
13
48.830000
23
25.749999
0
SOLID
8
2_KUPFERUNTEN
10
50.230000
20
25.050001
11
49.880000
21
24.700001
12
48.830000
22
25.050001
13
49.180000
23
24.700001
0
SOLID
8
2_KUPFERUNTEN
10
57.395000
20
23.617500
11
57.395000
21
24.642500
12
59.445000
22
23.617500
13
59.445000
23
24.642500
0
SOLID
8
2_KUPFERUNTEN
10
57.907500
20
23.105001
11
57.395000
21
23.617501
12
58.932500
22
23.105001
13
59.445000
23
23.617501
0
SOLID
8
2_KUPFERUNTEN
10
57.395000
20
24.642499
11
57.907500
21
25.154999
12
59.445000
22
24.642499
13
58.932500
23
25.154999
0
SOLID
8
2_KUPFERUNTEN
10
54.855000
20
13.457500
11
54.855000
21
14.482500
12
56.905000
22
13.457500
13
56.905000
23
14.482500
0
SOLID
8
2_KUPFERUNTEN
10
55.367500
20
12.945001
11
54.855000
21
13.457501
12
56.392500
22
12.945001
13
56.905000
23
13.457501
0
SOLID
8
2_KUPFERUNTEN
10
54.855000
20
14.482499
11
55.367500
21
14.994999
12
56.905000
22
14.482499
13
56.392500
23
14.994999
0
SOLID
8
2_KUPFERUNTEN
10
52.315000
20
23.617500
11
52.315000
21
24.642500
12
54.365000
22
23.617500
13
54.365000
23
24.642500
0
SOLID
8
2_KUPFERUNTEN
10
52.827500
20
23.105001
11
52.315000
21
23.617501
12
53.852500
22
23.105001
13
54.365000
23
23.617501
0
SOLID
8
2_KUPFERUNTEN
10
52.315000
20
24.642499
11
52.827500
21
25.154999
12
54.365000
22
24.642499
13
53.852500
23
25.154999
0
SOLID
8
2_KUPFERUNTEN
10
55.530000
20
-3.745000
11
56.230000
21
-3.745000
12
55.530000
22
-5.145000
13
56.230000
23
-5.145000
0
SOLID
8
2_KUPFERUNTEN
10
55.180001
20
-4.095000
11
55.530001
21
-3.745000
12
55.180001
22
-4.795000
13
55.530001
23
-5.145000
0
SOLID
8
2_KUPFERUNTEN
10
56.229999
20
-3.745000
11
56.579999
21
-4.095000
12
56.229999
22
-5.145000
13
56.579999
23
-4.795000
0
SOLID
8
2_KUPFERUNTEN
10
55.530000
20
6.415000
11
56.230000
21
6.415000
12
55.530000
22
5.015000
13
56.230000
23
5.015000
0
SOLID
8
2_KUPFERUNTEN
10
55.180001
20
6.065000
11
55.530001
21
6.415000
12
55.180001
22
5.365000
13
55.530001
23
5.015000
0
SOLID
8
2_KUPFERUNTEN
10
56.229999
20
6.415000
11
56.579999
21
6.065000
12
56.229999
22
5.015000
13
56.579999
23
5.365000
0
SOLID
8
2_KUPFERUNTEN
10
65.670000
20
-6.535000
11
65.670000
21
-7.435000
12
63.870000
22
-6.535000
13
63.870000
23
-7.435000
0
SOLID
8
2_KUPFERUNTEN
10
65.220000
20
-6.085001
11
65.670000
21
-6.535001
12
64.320000
22
-6.085001
13
63.870000
23
-6.535001
0
SOLID
8
2_KUPFERUNTEN
10
65.670000
20
-7.434999
11
65.220000
21
-7.884999
12
63.870000
22
-7.434999
13
64.320000
23
-7.884999
0
SOLID
8
2_KUPFERUNTEN
10
70.750000
20
-6.535000
11
70.750000
21
-7.435000
12
68.950000
22
-6.535000
13
68.950000
23
-7.435000
0
SOLID
8
2_KUPFERUNTEN
10
70.300000
20
-6.085001
11
70.750000
21
-6.535001
12
69.400000
22
-6.085001
13
68.950000
23
-6.535001
0
SOLID
8
2_KUPFERUNTEN
10
70.750000
20
-7.434999
11
70.300000
21
-7.884999
12
68.950000
22
-7.434999
13
69.400000
23
-7.884999
0
SOLID
8
2_KUPFERUNTEN
10
27.040000
20
-7.435000
11
27.040000
21
-6.535000
12
28.840000
22
-7.435000
13
28.840000
23
-6.535000
0
SOLID
8
2_KUPFERUNTEN
10
27.490000
20
-7.884999
11
27.040000
21
-7.434999
12
28.390000
22
-7.884999
13
28.840000
23
-7.434999
0
SOLID
8
2_KUPFERUNTEN
10
27.040000
20
-6.535001
11
27.490000
21
-6.085001
12
28.840000
22
-6.535001
13
28.390000
23
-6.085001
0
SOLID
8
2_KUPFERUNTEN
10
21.960000
20
-7.435000
11
21.960000
21
-6.535000
12
23.760000
22
-7.435000
13
23.760000
23
-6.535000
0
SOLID
8
2_KUPFERUNTEN
10
22.410000
20
-7.884999
11
21.960000
21
-7.434999
12
23.310000
22
-7.884999
13
23.760000
23
-7.434999
0
SOLID
8
2_KUPFERUNTEN
10
21.960000
20
-6.535001
11
22.410000
21
-6.085001
12
23.760000
22
-6.535001
13
23.310000
23
-6.085001
0
SOLID
8
2_KUPFERUNTEN
10
65.670000
20
18.865000
11
65.670000
21
17.965000
12
63.870000
22
18.865000
13
63.870000
23
17.965000
0
SOLID
8
2_KUPFERUNTEN
10
65.220000
20
19.314999
11
65.670000
21
18.864999
12
64.320000
22
19.314999
13
63.870000
23
18.864999
0
SOLID
8
2_KUPFERUNTEN
10
65.670000
20
17.965001
11
65.220000
21
17.515001
12
63.870000
22
17.965001
13
64.320000
23
17.515001
0
SOLID
8
2_KUPFERUNTEN
10
70.750000
20
18.865000
11
70.750000
21
17.965000
12
68.950000
22
18.865000
13
68.950000
23
17.965000
0
SOLID
8
2_KUPFERUNTEN
10
70.300000
20
19.314999
11
70.750000
21
18.864999
12
69.400000
22
19.314999
13
68.950000
23
18.864999
0
SOLID
8
2_KUPFERUNTEN
10
70.750000
20
17.965001
11
70.300000
21
17.515001
12
68.950000
22
17.965001
13
69.400000
23
17.515001
0
SOLID
8
2_KUPFERUNTEN
10
44.715000
20
6.165000
11
44.715000
21
5.265000
12
42.915000
22
6.165000
13
42.915000
23
5.265000
0
SOLID
8
2_KUPFERUNTEN
10
44.265000
20
6.614999
11
44.715000
21
6.164999
12
43.365000
22
6.614999
13
42.915000
23
6.164999
0
SOLID
8
2_KUPFERUNTEN
10
44.715000
20
5.265001
11
44.265000
21
4.815001
12
42.915000
22
5.265001
13
43.365000
23
4.815001
0
SOLID
8
2_KUPFERUNTEN
10
49.795000
20
6.165000
11
49.795000
21
5.265000
12
47.995000
22
6.165000
13
47.995000
23
5.265000
0
SOLID
8
2_KUPFERUNTEN
10
49.345000
20
6.614999
11
49.795000
21
6.164999
12
48.445000
22
6.614999
13
47.995000
23
6.164999
0
SOLID
8
2_KUPFERUNTEN
10
49.795000
20
5.265001
11
49.345000
21
4.815001
12
47.995000
22
5.265001
13
48.445000
23
4.815001
0
SOLID
8
2_KUPFERUNTEN
10
24.950000
20
16.775000
11
25.850000
21
16.775000
12
24.950000
22
14.975000
13
25.850000
23
14.975000
0
SOLID
8
2_KUPFERUNTEN
10
24.500001
20
16.325000
11
24.950001
21
16.775000
12
24.500001
22
15.425000
13
24.950001
23
14.975000
0
SOLID
8
2_KUPFERUNTEN
10
25.849999
20
16.775000
11
26.299999
21
16.325000
12
25.849999
22
14.975000
13
26.299999
23
15.425000
0
SOLID
8
2_KUPFERUNTEN
10
24.950000
20
21.855000
11
25.850000
21
21.855000
12
24.950000
22
20.055000
13
25.850000
23
20.055000
0
SOLID
8
2_KUPFERUNTEN
10
24.500001
20
21.405000
11
24.950001
21
21.855000
12
24.500001
22
20.505000
13
24.950001
23
20.055000
0
SOLID
8
2_KUPFERUNTEN
10
25.849999
20
21.855000
11
26.299999
21
21.405000
12
25.849999
22
20.055000
13
26.299999
23
20.505000
0
SOLID
8
2_KUPFERUNTEN
10
60.895000
20
4.730000
11
60.895000
21
5.430000
12
62.295000
22
4.730000
13
62.295000
23
5.430000
0
SOLID
8
2_KUPFERUNTEN
10
61.245000
20
4.380001
11
60.895000
21
4.730001
12
61.945000
22
4.380001
13
62.295000
23
4.730001
0
SOLID
8
2_KUPFERUNTEN
10
60.895000
20
5.429999
11
61.245000
21
5.779999
12
62.295000
22
5.429999
13
61.945000
23
5.779999
0
SOLID
8
2_KUPFERUNTEN
10
58.355000
20
4.730000
11
58.355000
21
5.430000
12
59.755000
22
4.730000
13
59.755000
23
5.430000
0
SOLID
8
2_KUPFERUNTEN
10
58.705000
20
4.380001
11
58.355000
21
4.730001
12
59.405000
22
4.380001
13
59.755000
23
4.730001
0
SOLID
8
2_KUPFERUNTEN
10
58.355000
20
5.429999
11
58.705000
21
5.779999
12
59.755000
22
5.429999
13
59.405000
23
5.779999
0
SOLID
8
2_KUPFERUNTEN
10
59.325000
20
9.025000
11
59.325000
21
10.025000
12
61.325000
22
9.025000
13
61.325000
23
10.025000
0
SOLID
8
2_KUPFERUNTEN
10
59.825000
20
8.525001
11
59.325000
21
9.025001
12
60.825000
22
8.525001
13
61.325000
23
9.025001
0
SOLID
8
2_KUPFERUNTEN
10
59.325000
20
10.024999
11
59.825000
21
10.524999
12
61.325000
22
10.024999
13
60.825000
23
10.524999
0
SOLID
8
2_KUPFERUNTEN
10
56.785000
20
9.025000
11
56.785000
21
10.025000
12
58.785000
22
9.025000
13
58.785000
23
10.025000
0
SOLID
8
2_KUPFERUNTEN
10
57.285000
20
8.525001
11
56.785000
21
9.025001
12
58.285000
22
8.525001
13
58.785000
23
9.025001
0
SOLID
8
2_KUPFERUNTEN
10
56.785000
20
10.024999
11
57.285000
21
10.524999
12
58.785000
22
10.024999
13
58.285000
23
10.524999
0
SOLID
8
2_KUPFERUNTEN
10
54.245000
20
9.025000
11
54.245000
21
10.025000
12
56.245000
22
9.025000
13
56.245000
23
10.025000
0
SOLID
8
2_KUPFERUNTEN
10
54.745000
20
8.525001
11
54.245000
21
9.025001
12
55.745000
22
8.525001
13
56.245000
23
9.025001
0
SOLID
8
2_KUPFERUNTEN
10
54.245000
20
10.024999
11
54.745000
21
10.524999
12
56.245000
22
10.024999
13
55.745000
23
10.524999
0
SOLID
8
2_KUPFERUNTEN
10
48.577500
20
20.975000
11
47.942500
21
20.975000
12
48.577500
22
23.475000
13
47.942500
23
23.475000
0
SOLID
8
2_KUPFERUNTEN
10
48.894999
20
21.292500
11
48.577499
21
20.975000
12
48.894999
22
23.157500
13
48.577499
23
23.475000
0
SOLID
8
2_KUPFERUNTEN
10
47.942501
20
20.975000
11
47.625001
21
21.292500
12
47.942501
22
23.475000
13
47.625001
23
23.157500
0
SOLID
8
2_KUPFERUNTEN
10
46.037500
20
20.975000
11
45.402500
21
20.975000
12
46.037500
22
23.475000
13
45.402500
23
23.475000
0
SOLID
8
2_KUPFERUNTEN
10
46.354999
20
21.292500
11
46.037499
21
20.975000
12
46.354999
22
23.157500
13
46.037499
23
23.475000
0
SOLID
8
2_KUPFERUNTEN
10
45.402501
20
20.975000
11
45.085001
21
21.292500
12
45.402501
22
23.475000
13
45.085001
23
23.157500
0
SOLID
8
2_KUPFERUNTEN
10
43.497500
20
20.975000
11
42.862500
21
20.975000
12
43.497500
22
23.475000
13
42.862500
23
23.475000
0
SOLID
8
2_KUPFERUNTEN
10
43.814999
20
21.292500
11
43.497499
21
20.975000
12
43.814999
22
23.157500
13
43.497499
23
23.475000
0
SOLID
8
2_KUPFERUNTEN
10
42.862501
20
20.975000
11
42.545001
21
21.292500
12
42.862501
22
23.475000
13
42.545001
23
23.157500
0
SOLID
8
2_KUPFERUNTEN
10
40.957500
20
20.975000
11
40.322500
21
20.975000
12
40.957500
22
23.475000
13
40.322500
23
23.475000
0
SOLID
8
2_KUPFERUNTEN
10
41.274999
20
21.292500
11
40.957499
21
20.975000
12
41.274999
22
23.157500
13
40.957499
23
23.475000
0
SOLID
8
2_KUPFERUNTEN
10
40.322501
20
20.975000
11
40.005001
21
21.292500
12
40.322501
22
23.475000
13
40.005001
23
23.157500
0
SOLID
8
2_KUPFERUNTEN
10
40.957500
20
13.355000
11
40.322500
21
13.355000
12
40.957500
22
15.855000
13
40.322500
23
15.855000
0
SOLID
8
2_KUPFERUNTEN
10
41.274999
20
13.672500
11
40.957499
21
13.355000
12
41.274999
22
15.537500
13
40.957499
23
15.855000
0
SOLID
8
2_KUPFERUNTEN
10
40.322501
20
13.355000
11
40.005001
21
13.672500
12
40.322501
22
15.855000
13
40.005001
23
15.537500
0
SOLID
8
2_KUPFERUNTEN
10
43.497500
20
13.355000
11
42.862500
21
13.355000
12
43.497500
22
15.855000
13
42.862500
23
15.855000
0
SOLID
8
2_KUPFERUNTEN
10
43.814999
20
13.672500
11
43.497499
21
13.355000
12
43.814999
22
15.537500
13
43.497499
23
15.855000
0
SOLID
8
2_KUPFERUNTEN
10
42.862501
20
13.355000
11
42.545001
21
13.672500
12
42.862501
22
15.855000
13
42.545001
23
15.537500
0
SOLID
8
2_KUPFERUNTEN
10
46.037500
20
13.355000
11
45.402500
21
13.355000
12
46.037500
22
15.855000
13
45.402500
23
15.855000
0
SOLID
8
2_KUPFERUNTEN
10
46.354999
20
13.672500
11
46.037499
21
13.355000
12
46.354999
22
15.537500
13
46.037499
23
15.855000
0
SOLID
8
2_KUPFERUNTEN
10
45.402501
20
13.355000
11
45.085001
21
13.672500
12
45.402501
22
15.855000
13
45.085001
23
15.537500
0
SOLID
8
2_KUPFERUNTEN
10
48.577500
20
13.355000
11
47.942500
21
13.355000
12
48.577500
22
15.855000
13
47.942500
23
15.855000
0
SOLID
8
2_KUPFERUNTEN
10
48.894999
20
13.672500
11
48.577499
21
13.355000
12
48.894999
22
15.537500
13
48.577499
23
15.855000
0
SOLID
8
2_KUPFERUNTEN
10
47.942501
20
13.355000
11
47.625001
21
13.672500
12
47.942501
22
15.855000
13
47.625001
23
15.537500
0
SOLID
8
2_KUPFERUNTEN
10
34.690000
20
24.600000
11
33.890000
21
24.600000
12
34.690000
22
26.200000
13
33.890000
23
26.200000
0
SOLID
8
2_KUPFERUNTEN
10
35.089999
20
25.000000
11
34.689999
21
24.600000
12
35.089999
22
25.800000
13
34.689999
23
26.200000
0
SOLID
8
2_KUPFERUNTEN
10
33.890001
20
24.600000
11
33.490001
21
25.000000
12
33.890001
22
26.200000
13
33.490001
23
25.800000
0
SOLID
8
2_KUPFERUNTEN
10
34.690000
20
19.520000
11
33.890000
21
19.520000
12
34.690000
22
21.120000
13
33.890000
23
21.120000
0
SOLID
8
2_KUPFERUNTEN
10
35.089999
20
19.920000
11
34.689999
21
19.520000
12
35.089999
22
20.720000
13
34.689999
23
21.120000
0
SOLID
8
2_KUPFERUNTEN
10
33.890001
20
19.520000
11
33.490001
21
19.920000
12
33.890001
22
21.120000
13
33.490001
23
20.720000
0
POLYLINE
8
2_KUPFERUNTEN
66
1
40
0.400000
41
0.400000
0
VERTEX
8
2_KUPFERUNTEN
10
48.260000
20
14.805000
42
1
0
VERTEX
8
2_KUPFERUNTEN
10
48.260000
20
14.405000
42
1
0
VERTEX
8
2_KUPFERUNTEN
10
48.260000
20
14.805000
0
SEQEND
0
POLYLINE
8
2_KUPFERUNTEN
66
1
40
0.400000
41
0.400000
0
VERTEX
8
2_KUPFERUNTEN
10
48.260000
20
13.535000
42
1
0
VERTEX
8
2_KUPFERUNTEN
10
48.260000
20
13.135000
42
1
0
VERTEX
8
2_KUPFERUNTEN
10
48.260000
20
13.535000
0
SEQEND
0
POLYLINE
8
2_KUPFERUNTEN
66
1
40
0.800000
41
0.800000
0
VERTEX
8
2_KUPFERUNTEN
10
48.260000
20
14.605000
0
VERTEX
8
2_KUPFERUNTEN
10
48.260000
20
13.335000
0
SEQEND
0
POLYLINE
8
2_KUPFERUNTEN
66
1
40
0.400000
41
0.400000
0
VERTEX
8
2_KUPFERUNTEN
10
48.260000
20
13.535000
42
1
0
VERTEX
8
2_KUPFERUNTEN
10
48.260000
20
13.135000
42
1
0
VERTEX
8
2_KUPFERUNTEN
10
48.260000
20
13.535000
0
SEQEND
0
POLYLINE
8
2_KUPFERUNTEN
66
1
40
0.400000
41
0.400000
0
VERTEX
8
2_KUPFERUNTEN
10
55.880000
20
5.915000
42
1
0
VERTEX
8
2_KUPFERUNTEN
10
55.880000
20
5.515000
42
1
0
VERTEX
8
2_KUPFERUNTEN
10
55.880000
20
5.915000
0
SEQEND
0
POLYLINE
8
2_KUPFERUNTEN
66
1
40
0.800000
41
0.800000
0
VERTEX
8
2_KUPFERUNTEN
10
48.260000
20
13.335000
0
VERTEX
8
2_KUPFERUNTEN
10
55.880000
20
5.715000
0
SEQEND
0
POLYLINE
8
2_KUPFERUNTEN
66
1
40
0.400000
41
0.400000
0
VERTEX
8
2_KUPFERUNTEN
10
58.420000
20
24.330000
42
1
0
VERTEX
8
2_KUPFERUNTEN
10
58.420000
20
23.930000
42
1
0
VERTEX
8
2_KUPFERUNTEN
10
58.420000
20
24.330000
0
SEQEND
0
POLYLINE
8
2_KUPFERUNTEN
66
1
40
0.400000
41
0.400000
0
VERTEX
8
2_KUPFERUNTEN
10
62.230000
20
20.520000
42
1
0
VERTEX
8
2_KUPFERUNTEN
10
62.230000
20
20.120000
42
1
0
VERTEX
8
2_KUPFERUNTEN
10
62.230000
20
20.520000
0
SEQEND
0
POLYLINE
8
2_KUPFERUNTEN
66
1
40
0.800000
41
0.800000
0
VERTEX
8
2_KUPFERUNTEN
10
58.420000
20
24.130000
0
VERTEX
8
2_KUPFERUNTEN
10
62.230000
20
20.320000
0
SEQEND
0
POLYLINE
8
2_KUPFERUNTEN
66
1
40
0.400000
41
0.400000
0
VERTEX
8
2_KUPFERUNTEN
10
62.230000
20
20.520000
42
1
0
VERTEX
8
2_KUPFERUNTEN
10
62.230000
20
20.120000
42
1
0
VERTEX
8
2_KUPFERUNTEN
10
62.230000
20
20.520000
0
SEQEND
0
POLYLINE
8
2_KUPFERUNTEN
66
1
40
0.400000
41
0.400000
0
VERTEX
8
2_KUPFERUNTEN
10
69.215000
20
20.520000
42
1
0
VERTEX
8
2_KUPFERUNTEN
10
69.215000
20
20.120000
42
1
0
VERTEX
8
2_KUPFERUNTEN
10
69.215000
20
20.520000
0
SEQEND
0
POLYLINE
8
2_KUPFERUNTEN
66
1
40
0.800000
41
0.800000
0
VERTEX
8
2_KUPFERUNTEN
10
62.230000
20
20.320000
0
VERTEX
8
2_KUPFERUNTEN
10
69.215000
20
20.320000
0
SEQEND
0
POLYLINE
8
2_KUPFERUNTEN
66
1
40
0.400000
41
0.400000
0
VERTEX
8
2_KUPFERUNTEN
10
69.215000
20
20.520000
42
1
0
VERTEX
8
2_KUPFERUNTEN
10
69.215000
20
20.120000
42
1
0
VERTEX
8
2_KUPFERUNTEN
10
69.215000
20
20.520000
0
SEQEND
0
POLYLINE
8
2_KUPFERUNTEN
66
1
40
0.400000
41
0.400000
0
VERTEX
8
2_KUPFERUNTEN
10
69.850000
20
19.885000
42
1
0
VERTEX
8
2_KUPFERUNTEN
10
69.850000
20
19.485000
42
1
0
VERTEX
8
2_KUPFERUNTEN
10
69.850000
20
19.885000
0
SEQEND
0
POLYLINE
8
2_KUPFERUNTEN
66
1
40
0.800000
41
0.800000
0
VERTEX
8
2_KUPFERUNTEN
10
69.215000
20
20.320000
0
VERTEX
8
2_KUPFERUNTEN
10
69.850000
20
19.685000
0
SEQEND
0
POLYLINE
8
2_KUPFERUNTEN
66
1
40
0.400000
41
0.400000
0
VERTEX
8
2_KUPFERUNTEN
10
69.850000
20
19.885000
42
1
0
VERTEX
8
2_KUPFERUNTEN
10
69.850000
20
19.485000
42
1
0
VERTEX
8
2_KUPFERUNTEN
10
69.850000
20
19.885000
0
SEQEND
0
POLYLINE
8
2_KUPFERUNTEN
66
1
40
0.400000
41
0.400000
0
VERTEX
8
2_KUPFERUNTEN
10
69.850000
20
18.615000
42
1
0
VERTEX
8
2_KUPFERUNTEN
10
69.850000
20
18.215000
42
1
0
VERTEX
8
2_KUPFERUNTEN
10
69.850000
20
18.615000
0
SEQEND
0
POLYLINE
8
2_KUPFERUNTEN
66
1
40
0.800000
41
0.800000
0
VERTEX
8
2_KUPFERUNTEN
10
69.850000
20
19.685000
0
VERTEX
8
2_KUPFERUNTEN
10
69.850000
20
18.415000
0
SEQEND
0
POLYLINE
8
2_KUPFERUNTEN
66
1
40
0.400000
41
0.400000
0
VERTEX
8
2_KUPFERUNTEN
10
69.850000
20
-6.785000
42
1
0
VERTEX
8
2_KUPFERUNTEN
10
69.850000
20
-7.185000
42
1
0
VERTEX
8
2_KUPFERUNTEN
10
69.850000
20
-6.785000
0
SEQEND
0
POLYLINE
8
2_KUPFERUNTEN
66
1
40
0.400000
41
0.400000
0
VERTEX
8
2_KUPFERUNTEN
10
69.850000
20
18.615000
42
1
0
VERTEX
8
2_KUPFERUNTEN
10
69.850000
20
18.215000
42
1
0
VERTEX
8
2_KUPFERUNTEN
10
69.850000
20
18.615000
0
SEQEND
0
POLYLINE
8
2_KUPFERUNTEN
66
1
40
0.800000
41
0.800000
0
VERTEX
8
2_KUPFERUNTEN
10
69.850000
20
-6.985000
0
VERTEX
8
2_KUPFERUNTEN
10
69.850000
20
18.415000
0
SEQEND
0
POLYLINE
8
2_KUPFERUNTEN
66
1
40
0.400000
41
0.400000
0
VERTEX
8
2_KUPFERUNTEN
10
61.595000
20
5.280000
42
1
0
VERTEX
8
2_KUPFERUNTEN
10
61.595000
20
4.880000
42
1
0
VERTEX
8
2_KUPFERUNTEN
10
61.595000
20
5.280000
0
SEQEND
0
POLYLINE
8
2_KUPFERUNTEN
66
1
40
0.400000
41
0.400000
0
VERTEX
8
2_KUPFERUNTEN
10
59.055000
20
0.835000
42
1
0
VERTEX
8
2_KUPFERUNTEN
10
59.055000
20
0.435000
42
1
0
VERTEX
8
2_KUPFERUNTEN
10
59.055000
20
0.835000
0
SEQEND
0
POLYLINE
8
2_KUPFERUNTEN
66
1
40
0.800000
41
0.800000
0
VERTEX
8
2_KUPFERUNTEN
10
61.595000
20
5.080000
0
VERTEX
8
2_KUPFERUNTEN
10
59.055000
20
0.635000
0
SEQEND
0
POLYLINE
8
2_KUPFERUNTEN
66
1
40
0.400000
41
0.400000
0
VERTEX
8
2_KUPFERUNTEN
10
59.055000
20
0.835000
42
1
0
VERTEX
8
2_KUPFERUNTEN
10
59.055000
20
0.435000
42
1
0
VERTEX
8
2_KUPFERUNTEN
10
59.055000
20
0.835000
0
SEQEND
0
POLYLINE
8
2_KUPFERUNTEN
66
1
40
0.400000
41
0.400000
0
VERTEX
8
2_KUPFERUNTEN
10
53.340000
20
0.835000
42
1
0
VERTEX
8
2_KUPFERUNTEN
10
53.340000
20
0.435000
42
1
0
VERTEX
8
2_KUPFERUNTEN
10
53.340000
20
0.835000
0
SEQEND
0
POLYLINE
8
2_KUPFERUNTEN
66
1
40
0.800000
41
0.800000
0
VERTEX
8
2_KUPFERUNTEN
10
59.055000
20
0.635000
0
VERTEX
8
2_KUPFERUNTEN
10
53.340000
20
0.635000
0
SEQEND
0
POLYLINE
8
2_KUPFERUNTEN
66
1
40
0.400000
41
0.400000
0
VERTEX
8
2_KUPFERUNTEN
10
53.340000
20
0.835000
42
1
0
VERTEX
8
2_KUPFERUNTEN
10
53.340000
20
0.435000
42
1
0
VERTEX
8
2_KUPFERUNTEN
10
53.340000
20
0.835000
0
SEQEND
0
POLYLINE
8
2_KUPFERUNTEN
66
1
40
0.400000
41
0.400000
0
VERTEX
8
2_KUPFERUNTEN
10
50.165000
20
5.915000
42
1
0
VERTEX
8
2_KUPFERUNTEN
10
50.165000
20
5.515000
42
1
0
VERTEX
8
2_KUPFERUNTEN
10
50.165000
20
5.915000
0
SEQEND
0
POLYLINE
8
2_KUPFERUNTEN
66
1
40
0.800000
41
0.800000
0
VERTEX
8
2_KUPFERUNTEN
10
53.340000
20
0.635000
0
VERTEX
8
2_KUPFERUNTEN
10
50.165000
20
5.715000
0
SEQEND
0
POLYLINE
8
2_KUPFERUNTEN
66
1
40
0.400000
41
0.400000
0
VERTEX
8
2_KUPFERUNTEN
10
50.165000
20
5.915000
42
1
0
VERTEX
8
2_KUPFERUNTEN
10
50.165000
20
5.515000
42
1
0
VERTEX
8
2_KUPFERUNTEN
10
50.165000
20
5.915000
0
SEQEND
0
POLYLINE
8
2_KUPFERUNTEN
66
1
40
0.400000
41
0.400000
0
VERTEX
8
2_KUPFERUNTEN
10
48.895000
20
5.915000
42
1
0
VERTEX
8
2_KUPFERUNTEN
10
48.895000
20
5.515000
42
1
0
VERTEX
8
2_KUPFERUNTEN
10
48.895000
20
5.915000
0
SEQEND
0
POLYLINE
8
2_KUPFERUNTEN
66
1
40
0.800000
41
0.800000
0
VERTEX
8
2_KUPFERUNTEN
10
50.165000
20
5.715000
0
VERTEX
8
2_KUPFERUNTEN
10
48.895000
20
5.715000
0
SEQEND
0
POLYLINE
8
2_KUPFERUNTEN
66
1
40
0.400000
41
0.400000
0
VERTEX
8
2_KUPFERUNTEN
10
22.860000
20
-6.785000
42
1
0
VERTEX
8
2_KUPFERUNTEN
10
22.860000
20
-7.185000
42
1
0
VERTEX
8
2_KUPFERUNTEN
10
22.860000
20
-6.785000
0
SEQEND
0
POLYLINE
8
2_KUPFERUNTEN
66
1
40
0.400000
41
0.400000
0
VERTEX
8
2_KUPFERUNTEN
10
25.400000
20
-9.325000
42
1
0
VERTEX
8
2_KUPFERUNTEN
10
25.400000
20
-9.725000
42
1
0
VERTEX
8
2_KUPFERUNTEN
10
25.400000
20
-9.325000
0
SEQEND
0
POLYLINE
8
2_KUPFERUNTEN
66
1
40
0.800000
41
0.800000
0
VERTEX
8
2_KUPFERUNTEN
10
22.860000
20
-6.985000
0
VERTEX
8
2_KUPFERUNTEN
10
25.400000
20
-9.525000
0
SEQEND
0
POLYLINE
8
2_KUPFERUNTEN
66
1
40
0.400000
41
0.400000
0
VERTEX
8
2_KUPFERUNTEN
10
25.400000
20
-9.325000
42
1
0
VERTEX
8
2_KUPFERUNTEN
10
25.400000
20
-9.725000
42
1
0
VERTEX
8
2_KUPFERUNTEN
10
25.400000
20
-9.325000
0
SEQEND
0
POLYLINE
8
2_KUPFERUNTEN
66
1
40
0.400000
41
0.400000
0
VERTEX
8
2_KUPFERUNTEN
10
66.040000
20
-9.325000
42
1
0
VERTEX
8
2_KUPFERUNTEN
10
66.040000
20
-9.725000
42
1
0
VERTEX
8
2_KUPFERUNTEN
10
66.040000
20
-9.325000
0
SEQEND
0
POLYLINE
8
2_KUPFERUNTEN
66
1
40
0.800000
41
0.800000
0
VERTEX
8
2_KUPFERUNTEN
10
25.400000
20
-9.525000
0
VERTEX
8
2_KUPFERUNTEN
10
66.040000
20
-9.525000
0
SEQEND
0
POLYLINE
8
2_KUPFERUNTEN
66
1
40
0.400000
41
0.400000
0
VERTEX
8
2_KUPFERUNTEN
10
66.040000
20
-9.325000
42
1
0
VERTEX
8
2_KUPFERUNTEN
10
66.040000
20
-9.725000
42
1
0
VERTEX
8
2_KUPFERUNTEN
10
66.040000
20
-9.325000
0
SEQEND
0
POLYLINE
8
2_KUPFERUNTEN
66
1
40
0.400000
41
0.400000
0
VERTEX
8
2_KUPFERUNTEN
10
68.580000
20
-6.785000
42
1
0
VERTEX
8
2_KUPFERUNTEN
10
68.580000
20
-7.185000
42
1
0
VERTEX
8
2_KUPFERUNTEN
10
68.580000
20
-6.785000
0
SEQEND
0
POLYLINE
8
2_KUPFERUNTEN
66
1
40
0.800000
41
0.800000
0
VERTEX
8
2_KUPFERUNTEN
10
66.040000
20
-9.525000
0
VERTEX
8
2_KUPFERUNTEN
10
68.580000
20
-6.985000
0
SEQEND
0
POLYLINE
8
2_KUPFERUNTEN
66
1
40
0.400000
41
0.400000
0
VERTEX
8
2_KUPFERUNTEN
10
68.580000
20
-6.785000
42
1
0
VERTEX
8
2_KUPFERUNTEN
10
68.580000
20
-7.185000
42
1
0
VERTEX
8
2_KUPFERUNTEN
10
68.580000
20
-6.785000
0
SEQEND
0
POLYLINE
8
2_KUPFERUNTEN
66
1
40
0.400000
41
0.400000
0
VERTEX
8
2_KUPFERUNTEN
10
69.850000
20
-6.785000
42
1
0
VERTEX
8
2_KUPFERUNTEN
10
69.850000
20
-7.185000
42
1
0
VERTEX
8
2_KUPFERUNTEN
10
69.850000
20
-6.785000
0
SEQEND
0
POLYLINE
8
2_KUPFERUNTEN
66
1
40
0.800000
41
0.800000
0
VERTEX
8
2_KUPFERUNTEN
10
68.580000
20
-6.985000
0
VERTEX
8
2_KUPFERUNTEN
10
69.850000
20
-6.985000
0
SEQEND
0
POLYLINE
8
2_KUPFERUNTEN
66
1
40
0.400000
41
0.400000
0
VERTEX
8
2_KUPFERUNTEN
10
48.895000
20
5.915000
42
1
0
VERTEX
8
2_KUPFERUNTEN
10
48.895000
20
5.515000
42
1
0
VERTEX
8
2_KUPFERUNTEN
10
48.895000
20
5.915000
0
SEQEND
0
POLYLINE
8
2_KUPFERUNTEN
66
1
40
0.400000
41
0.400000
0
VERTEX
8
2_KUPFERUNTEN
10
40.640000
20
14.170000
42
1
0
VERTEX
8
2_KUPFERUNTEN
10
40.640000
20
13.770000
42
1
0
VERTEX
8
2_KUPFERUNTEN
10
40.640000
20
14.170000
0
SEQEND
0
POLYLINE
8
2_KUPFERUNTEN
66
1
40
0.800000
41
0.800000
0
VERTEX
8
2_KUPFERUNTEN
10
48.895000
20
5.715000
0
VERTEX
8
2_KUPFERUNTEN
10
40.640000
20
13.970000
0
SEQEND
0
POLYLINE
8
2_KUPFERUNTEN
66
1
40
0.400000
41
0.400000
0
VERTEX
8
2_KUPFERUNTEN
10
40.640000
20
14.170000
42
1
0
VERTEX
8
2_KUPFERUNTEN
10
40.640000
20
13.770000
42
1
0
VERTEX
8
2_KUPFERUNTEN
10
40.640000
20
14.170000
0
SEQEND
0
POLYLINE
8
2_KUPFERUNTEN
66
1
40
0.400000
41
0.400000
0
VERTEX
8
2_KUPFERUNTEN
10
40.640000
20
14.805000
42
1
0
VERTEX
8
2_KUPFERUNTEN
10
40.640000
20
14.405000
42
1
0
VERTEX
8
2_KUPFERUNTEN
10
40.640000
20
14.805000
0
SEQEND
0
POLYLINE
8
2_KUPFERUNTEN
66
1
40
0.800000
41
0.800000
0
VERTEX
8
2_KUPFERUNTEN
10
40.640000
20
13.970000
0
VERTEX
8
2_KUPFERUNTEN
10
40.640000
20
14.605000
0
SEQEND
0
POLYLINE
8
2_KUPFERUNTEN
66
1
40
0.400000
41
0.400000
0
VERTEX
8
2_KUPFERUNTEN
10
22.860000
20
-6.785000
42
1
0
VERTEX
8
2_KUPFERUNTEN
10
22.860000
20
-7.185000
42
1
0
VERTEX
8
2_KUPFERUNTEN
10
22.860000
20
-6.785000
0
SEQEND
0
POLYLINE
8
2_KUPFERUNTEN
66
1
40
0.400000
41
0.400000
0
VERTEX
8
2_KUPFERUNTEN
10
22.860000
20
18.615000
42
1
0
VERTEX
8
2_KUPFERUNTEN
10
22.860000
20
18.215000
42
1
0
VERTEX
8
2_KUPFERUNTEN
10
22.860000
20
18.615000
0
SEQEND
0
POLYLINE
8
2_KUPFERUNTEN
66
1
40
0.800000
41
0.800000
0
VERTEX
8
2_KUPFERUNTEN
10
22.860000
20
-6.985000
0
VERTEX
8
2_KUPFERUNTEN
10
22.860000
20
18.415000
0
SEQEND
0
POLYLINE
8
2_KUPFERUNTEN
66
1
40
0.400000
41
0.400000
0
VERTEX
8
2_KUPFERUNTEN
10
22.860000
20
18.615000
42
1
0
VERTEX
8
2_KUPFERUNTEN
10
22.860000
20
18.215000
42
1
0
VERTEX
8
2_KUPFERUNTEN
10
22.860000
20
18.615000
0
SEQEND
0
POLYLINE
8
2_KUPFERUNTEN
66
1
40
0.400000
41
0.400000
0
VERTEX
8
2_KUPFERUNTEN
10
25.400000
20
21.155000
42
1
0
VERTEX
8
2_KUPFERUNTEN
10
25.400000
20
20.755000
42
1
0
VERTEX
8
2_KUPFERUNTEN
10
25.400000
20
21.155000
0
SEQEND
0
POLYLINE
8
2_KUPFERUNTEN
66
1
40
0.800000
41
0.800000
0
VERTEX
8
2_KUPFERUNTEN
10
22.860000
20
18.415000
0
VERTEX
8
2_KUPFERUNTEN
10
25.400000
20
20.955000
0
SEQEND
0
POLYLINE
8
2_KUPFERUNTEN
66
1
40
0.400000
41
0.400000
0
VERTEX
8
2_KUPFERUNTEN
10
25.400000
20
21.155000
42
1
0
VERTEX
8
2_KUPFERUNTEN
10
25.400000
20
20.755000
42
1
0
VERTEX
8
2_KUPFERUNTEN
10
25.400000
20
21.155000
0
SEQEND
0
POLYLINE
8
2_KUPFERUNTEN
66
1
40
0.400000
41
0.400000
0
VERTEX
8
2_KUPFERUNTEN
10
31.750000
20
14.805000
42
1
0
VERTEX
8
2_KUPFERUNTEN
10
31.750000
20
14.405000
42
1
0
VERTEX
8
2_KUPFERUNTEN
10
31.750000
20
14.805000
0
SEQEND
0
POLYLINE
8
2_KUPFERUNTEN
66
1
40
0.800000
41
0.800000
0
VERTEX
8
2_KUPFERUNTEN
10
25.400000
20
20.955000
0
VERTEX
8
2_KUPFERUNTEN
10
31.750000
20
14.605000
0
SEQEND
0
POLYLINE
8
2_KUPFERUNTEN
66
1
40
0.400000
41
0.400000
0
VERTEX
8
2_KUPFERUNTEN
10
31.750000
20
14.805000
42
1
0
VERTEX
8
2_KUPFERUNTEN
10
31.750000
20
14.405000
42
1
0
VERTEX
8
2_KUPFERUNTEN
10
31.750000
20
14.805000
0
SEQEND
0
POLYLINE
8
2_KUPFERUNTEN
66
1
40
0.400000
41
0.400000
0
VERTEX
8
2_KUPFERUNTEN
10
40.640000
20
14.805000
42
1
0
VERTEX
8
2_KUPFERUNTEN
10
40.640000
20
14.405000
42
1
0
VERTEX
8
2_KUPFERUNTEN
10
40.640000
20
14.805000
0
SEQEND
0
POLYLINE
8
2_KUPFERUNTEN
66
1
40
0.800000
41
0.800000
0
VERTEX
8
2_KUPFERUNTEN
10
31.750000
20
14.605000
0
VERTEX
8
2_KUPFERUNTEN
10
40.640000
20
14.605000
0
SEQEND
0
POLYLINE
8
2_KUPFERUNTEN
66
1
40
0.400000
41
0.400000
0
VERTEX
8
2_KUPFERUNTEN
10
49.530000
20
25.600000
42
1
0
VERTEX
8
2_KUPFERUNTEN
10
49.530000
20
25.200000
42
1
0
VERTEX
8
2_KUPFERUNTEN
10
49.530000
20
25.600000
0
SEQEND
0
POLYLINE
8
2_KUPFERUNTEN
66
1
40
0.400000
41
0.400000
0
VERTEX
8
2_KUPFERUNTEN
10
49.530000
20
26.235000
42
1
0
VERTEX
8
2_KUPFERUNTEN
10
49.530000
20
25.835000
42
1
0
VERTEX
8
2_KUPFERUNTEN
10
49.530000
20
26.235000
0
SEQEND
0
POLYLINE
8
2_KUPFERUNTEN
66
1
40
0.800000
41
0.800000
0
VERTEX
8
2_KUPFERUNTEN
10
49.530000
20
25.400000
0
VERTEX
8
2_KUPFERUNTEN
10
49.530000
20
26.035000
0
SEQEND
0
POLYLINE
8
2_KUPFERUNTEN
66
1
40
0.400000
41
0.400000
0
VERTEX
8
2_KUPFERUNTEN
10
49.530000
20
26.235000
42
1
0
VERTEX
8
2_KUPFERUNTEN
10
49.530000
20
25.835000
42
1
0
VERTEX
8
2_KUPFERUNTEN
10
49.530000
20
26.235000
0
SEQEND
0
POLYLINE
8
2_KUPFERUNTEN
66
1
40
0.400000
41
0.400000
0
VERTEX
8
2_KUPFERUNTEN
10
55.245000
20
26.235000
42
1
0
VERTEX
8
2_KUPFERUNTEN
10
55.245000
20
25.835000
42
1
0
VERTEX
8
2_KUPFERUNTEN
10
55.245000
20
26.235000
0
SEQEND
0
POLYLINE
8
2_KUPFERUNTEN
66
1
40
0.800000
41
0.800000
0
VERTEX
8
2_KUPFERUNTEN
10
49.530000
20
26.035000
0
VERTEX
8
2_KUPFERUNTEN
10
55.245000
20
26.035000
0
SEQEND
0
POLYLINE
8
2_KUPFERUNTEN
66
1
40
0.400000
41
0.400000
0
VERTEX
8
2_KUPFERUNTEN
10
55.245000
20
26.235000
42
1
0
VERTEX
8
2_KUPFERUNTEN
10
55.245000
20
25.835000
42
1
0
VERTEX
8
2_KUPFERUNTEN
10
55.245000
20
26.235000
0
SEQEND
0
POLYLINE
8
2_KUPFERUNTEN
66
1
40
0.400000
41
0.400000
0
VERTEX
8
2_KUPFERUNTEN
10
55.245000
20
14.170000
42
1
0
VERTEX
8
2_KUPFERUNTEN
10
55.245000
20
13.770000
42
1
0
VERTEX
8
2_KUPFERUNTEN
10
55.245000
20
14.170000
0
SEQEND
0
POLYLINE
8
2_KUPFERUNTEN
66
1
40
0.800000
41
0.800000
0
VERTEX
8
2_KUPFERUNTEN
10
55.245000
20
26.035000
0
VERTEX
8
2_KUPFERUNTEN
10
55.245000
20
13.970000
0
SEQEND
0
POLYLINE
8
2_KUPFERUNTEN
66
1
40
0.400000
41
0.400000
0
VERTEX
8
2_KUPFERUNTEN
10
55.245000
20
14.170000
42
1
0
VERTEX
8
2_KUPFERUNTEN
10
55.245000
20
13.770000
42
1
0
VERTEX
8
2_KUPFERUNTEN
10
55.245000
20
14.170000
0
SEQEND
0
POLYLINE
8
2_KUPFERUNTEN
66
1
40
0.400000
41
0.400000
0
VERTEX
8
2_KUPFERUNTEN
10
55.880000
20
14.170000
42
1
0
VERTEX
8
2_KUPFERUNTEN
10
55.880000
20
13.770000
42
1
0
VERTEX
8
2_KUPFERUNTEN
10
55.880000
20
14.170000
0
SEQEND
0
POLYLINE
8
2_KUPFERUNTEN
66
1
40
0.800000
41
0.800000
0
VERTEX
8
2_KUPFERUNTEN
10
55.245000
20
13.970000
0
VERTEX
8
2_KUPFERUNTEN
10
55.880000
20
13.970000
0
SEQEND
0
POLYLINE
8
2_KUPFERUNTEN
66
1
40
0.400000
41
0.400000
0
VERTEX
8
2_KUPFERUNTEN
10
34.290000
20
20.520000
42
1
0
VERTEX
8
2_KUPFERUNTEN
10
34.290000
20
20.120000
42
1
0
VERTEX
8
2_KUPFERUNTEN
10
34.290000
20
20.520000
0
SEQEND
0
POLYLINE
8
2_KUPFERUNTEN
66
1
40
0.400000
41
0.400000
0
VERTEX
8
2_KUPFERUNTEN
10
36.195000
20
18.615000
42
1
0
VERTEX
8
2_KUPFERUNTEN
10
36.195000
20
18.215000
42
1
0
VERTEX
8
2_KUPFERUNTEN
10
36.195000
20
18.615000
0
SEQEND
0
POLYLINE
8
2_KUPFERUNTEN
66
1
40
0.800000
41
0.800000
0
VERTEX
8
2_KUPFERUNTEN
10
34.290000
20
20.320000
0
VERTEX
8
2_KUPFERUNTEN
10
36.195000
20
18.415000
0
SEQEND
0
POLYLINE
8
2_KUPFERUNTEN
66
1
40
0.400000
41
0.400000
0
VERTEX
8
2_KUPFERUNTEN
10
36.195000
20
18.615000
42
1
0
VERTEX
8
2_KUPFERUNTEN
10
36.195000
20
18.215000
42
1
0
VERTEX
8
2_KUPFERUNTEN
10
36.195000
20
18.615000
0
SEQEND
0
POLYLINE
8
2_KUPFERUNTEN
66
1
40
0.400000
41
0.400000
0
VERTEX
8
2_KUPFERUNTEN
10
43.180000
20
18.615000
42
1
0
VERTEX
8
2_KUPFERUNTEN
10
43.180000
20
18.215000
42
1
0
VERTEX
8
2_KUPFERUNTEN
10
43.180000
20
18.615000
0
SEQEND
0
POLYLINE
8
2_KUPFERUNTEN
66
1
40
0.800000
41
0.800000
0
VERTEX
8
2_KUPFERUNTEN
10
36.195000
20
18.415000
0
VERTEX
8
2_KUPFERUNTEN
10
43.180000
20
18.415000
0
SEQEND
0
POLYLINE
8
2_KUPFERUNTEN
66
1
40
0.400000
41
0.400000
0
VERTEX
8
2_KUPFERUNTEN
10
45.720000
20
18.615000
42
1
0
VERTEX
8
2_KUPFERUNTEN
10
45.720000
20
18.215000
42
1
0
VERTEX
8
2_KUPFERUNTEN
10
45.720000
20
18.615000
0
SEQEND
0
POLYLINE
8
2_KUPFERUNTEN
66
1
40
0.400000
41
0.400000
0
VERTEX
8
2_KUPFERUNTEN
10
45.720000
20
22.425000
42
1
0
VERTEX
8
2_KUPFERUNTEN
10
45.720000
20
22.025000
42
1
0
VERTEX
8
2_KUPFERUNTEN
10
45.720000
20
22.425000
0
SEQEND
0
POLYLINE
8
2_KUPFERUNTEN
66
1
40
0.800000
41
0.800000
0
VERTEX
8
2_KUPFERUNTEN
10
45.720000
20
18.415000
0
VERTEX
8
2_KUPFERUNTEN
10
45.720000
20
22.225000
0
SEQEND
0
POLYLINE
8
2_KUPFERUNTEN
66
1
40
0.400000
41
0.400000
0
VERTEX
8
2_KUPFERUNTEN
10
43.180000
20
14.805000
42
1
0
VERTEX
8
2_KUPFERUNTEN
10
43.180000
20
14.405000
42
1
0
VERTEX
8
2_KUPFERUNTEN
10
43.180000
20
14.805000
0
SEQEND
0
POLYLINE
8
2_KUPFERUNTEN
66
1
40
0.400000
41
0.400000
0
VERTEX
8
2_KUPFERUNTEN
10
43.180000
20
18.615000
42
1
0
VERTEX
8
2_KUPFERUNTEN
10
43.180000
20
18.215000
42
1
0
VERTEX
8
2_KUPFERUNTEN
10
43.180000
20
18.615000
0
SEQEND
0
POLYLINE
8
2_KUPFERUNTEN
66
1
40
0.800000
41
0.800000
0
VERTEX
8
2_KUPFERUNTEN
10
43.180000
20
14.605000
0
VERTEX
8
2_KUPFERUNTEN
10
43.180000
20
18.415000
0
SEQEND
0
POLYLINE
8
2_KUPFERUNTEN
66
1
40
0.400000
41
0.400000
0
VERTEX
8
2_KUPFERUNTEN
10
43.180000
20
18.615000
42
1
0
VERTEX
8
2_KUPFERUNTEN
10
43.180000
20
18.215000
42
1
0
VERTEX
8
2_KUPFERUNTEN
10
43.180000
20
18.615000
0
SEQEND
0
POLYLINE
8
2_KUPFERUNTEN
66
1
40
0.400000
41
0.400000
0
VERTEX
8
2_KUPFERUNTEN
10
45.720000
20
18.615000
42
1
0
VERTEX
8
2_KUPFERUNTEN
10
45.720000
20
18.215000
42
1
0
VERTEX
8
2_KUPFERUNTEN
10
45.720000
20
18.615000
0
SEQEND
0
POLYLINE
8
2_KUPFERUNTEN
66
1
40
0.800000
41
0.800000
0
VERTEX
8
2_KUPFERUNTEN
10
43.180000
20
18.415000
0
VERTEX
8
2_KUPFERUNTEN
10
45.720000
20
18.415000
0
SEQEND
0
POLYLINE
8
2_KUPFERUNTEN
66
1
40
0.400000
41
0.400000
0
VERTEX
8
2_KUPFERUNTEN
10
34.290000
20
25.600000
42
1
0
VERTEX
8
2_KUPFERUNTEN
10
34.290000
20
25.200000
42
1
0
VERTEX
8
2_KUPFERUNTEN
10
34.290000
20
25.600000
0
SEQEND
0
POLYLINE
8
2_KUPFERUNTEN
66
1
40
0.400000
41
0.400000
0
VERTEX
8
2_KUPFERUNTEN
10
39.370000
20
25.600000
42
1
0
VERTEX
8
2_KUPFERUNTEN
10
39.370000
20
25.200000
42
1
0
VERTEX
8
2_KUPFERUNTEN
10
39.370000
20
25.600000
0
SEQEND
0
POLYLINE
8
2_KUPFERUNTEN
66
1
40
0.800000
41
0.800000
0
VERTEX
8
2_KUPFERUNTEN
10
34.290000
20
25.400000
0
VERTEX
8
2_KUPFERUNTEN
10
39.370000
20
25.400000
0
SEQEND
0
POLYLINE
8
2_KUPFERUNTEN
66
1
40
0.400000
41
0.400000
0
VERTEX
8
2_KUPFERUNTEN
10
40.640000
20
22.425000
42
1
0
VERTEX
8
2_KUPFERUNTEN
10
40.640000
20
22.025000
42
1
0
VERTEX
8
2_KUPFERUNTEN
10
40.640000
20
22.425000
0
SEQEND
0
POLYLINE
8
2_KUPFERUNTEN
66
1
40
0.400000
41
0.400000
0
VERTEX
8
2_KUPFERUNTEN
10
39.370000
20
23.695000
42
1
0
VERTEX
8
2_KUPFERUNTEN
10
39.370000
20
23.295000
42
1
0
VERTEX
8
2_KUPFERUNTEN
10
39.370000
20
23.695000
0
SEQEND
0
POLYLINE
8
2_KUPFERUNTEN
66
1
40
0.800000
41
0.800000
0
VERTEX
8
2_KUPFERUNTEN
10
40.640000
20
22.225000
0
VERTEX
8
2_KUPFERUNTEN
10
39.370000
20
23.495000
0
SEQEND
0
POLYLINE
8
2_KUPFERUNTEN
66
1
40
0.400000
41
0.400000
0
VERTEX
8
2_KUPFERUNTEN
10
39.370000
20
23.695000
42
1
0
VERTEX
8
2_KUPFERUNTEN
10
39.370000
20
23.295000
42
1
0
VERTEX
8
2_KUPFERUNTEN
10
39.370000
20
23.695000
0
SEQEND
0
POLYLINE
8
2_KUPFERUNTEN
66
1
40
0.400000
41
0.400000
0
VERTEX
8
2_KUPFERUNTEN
10
39.370000
20
25.600000
42
1
0
VERTEX
8
2_KUPFERUNTEN
10
39.370000
20
25.200000
42
1
0
VERTEX
8
2_KUPFERUNTEN
10
39.370000
20
25.600000
0
SEQEND
0
POLYLINE
8
2_KUPFERUNTEN
66
1
40
0.800000
41
0.800000
0
VERTEX
8
2_KUPFERUNTEN
10
39.370000
20
23.495000
0
VERTEX
8
2_KUPFERUNTEN
10
39.370000
20
25.400000
0
SEQEND
0
POLYLINE
8
2_KUPFERUNTEN
66
1
40
0.400000
41
0.400000
0
VERTEX
8
2_KUPFERUNTEN
10
53.340000
20
24.330000
42
1
0
VERTEX
8
2_KUPFERUNTEN
10
53.340000
20
23.930000
42
1
0
VERTEX
8
2_KUPFERUNTEN
10
53.340000
20
24.330000
0
SEQEND
0
POLYLINE
8
2_KUPFERUNTEN
66
1
40
0.400000
41
0.400000
0
VERTEX
8
2_KUPFERUNTEN
10
51.435000
20
22.425000
42
1
0
VERTEX
8
2_KUPFERUNTEN
10
51.435000
20
22.025000
42
1
0
VERTEX
8
2_KUPFERUNTEN
10
51.435000
20
22.425000
0
SEQEND
0
POLYLINE
8
2_KUPFERUNTEN
66
1
40
0.800000
41
0.800000
0
VERTEX
8
2_KUPFERUNTEN
10
53.340000
20
24.130000
0
VERTEX
8
2_KUPFERUNTEN
10
51.435000
20
22.225000
0
SEQEND
0
POLYLINE
8
2_KUPFERUNTEN
66
1
40
0.400000
41
0.400000
0
VERTEX
8
2_KUPFERUNTEN
10
51.435000
20
22.425000
42
1
0
VERTEX
8
2_KUPFERUNTEN
10
51.435000
20
22.025000
42
1
0
VERTEX
8
2_KUPFERUNTEN
10
51.435000
20
22.425000
0
SEQEND
0
POLYLINE
8
2_KUPFERUNTEN
66
1
40
0.400000
41
0.400000
0
VERTEX
8
2_KUPFERUNTEN
10
48.260000
20
22.425000
42
1
0
VERTEX
8
2_KUPFERUNTEN
10
48.260000
20
22.025000
42
1
0
VERTEX
8
2_KUPFERUNTEN
10
48.260000
20
22.425000
0
SEQEND
0
POLYLINE
8
2_KUPFERUNTEN
66
1
40
0.800000
41
0.800000
0
VERTEX
8
2_KUPFERUNTEN
10
51.435000
20
22.225000
0
VERTEX
8
2_KUPFERUNTEN
10
48.260000
20
22.225000
0
SEQEND
0
POLYLINE
8
2_KUPFERUNTEN
66
1
40
0.400000
41
0.400000
0
VERTEX
8
2_KUPFERUNTEN
10
53.340000
20
24.330000
42
1
0
VERTEX
8
2_KUPFERUNTEN
10
53.340000
20
23.930000
42
1
0
VERTEX
8
2_KUPFERUNTEN
10
53.340000
20
24.330000
0
SEQEND
0
POLYLINE
8
2_KUPFERUNTEN
66
1
40
0.400000
41
0.400000
0
VERTEX
8
2_KUPFERUNTEN
10
53.340000
20
14.170000
42
1
0
VERTEX
8
2_KUPFERUNTEN
10
53.340000
20
13.770000
42
1
0
VERTEX
8
2_KUPFERUNTEN
10
53.340000
20
14.170000
0
SEQEND
0
POLYLINE
8
2_KUPFERUNTEN
66
1
40
0.800000
41
0.800000
0
VERTEX
8
2_KUPFERUNTEN
10
53.340000
20
24.130000
0
VERTEX
8
2_KUPFERUNTEN
10
53.340000
20
13.970000
0
SEQEND
0
POLYLINE
8
2_KUPFERUNTEN
66
1
40
0.400000
41
0.400000
0
VERTEX
8
2_KUPFERUNTEN
10
53.340000
20
14.170000
42
1
0
VERTEX
8
2_KUPFERUNTEN
10
53.340000
20
13.770000
42
1
0
VERTEX
8
2_KUPFERUNTEN
10
53.340000
20
14.170000
0
SEQEND
0
POLYLINE
8
2_KUPFERUNTEN
66
1
40
0.400000
41
0.400000
0
VERTEX
8
2_KUPFERUNTEN
10
57.785000
20
9.725000
42
1
0
VERTEX
8
2_KUPFERUNTEN
10
57.785000
20
9.325000
42
1
0
VERTEX
8
2_KUPFERUNTEN
10
57.785000
20
9.725000
0
SEQEND
0
POLYLINE
8
2_KUPFERUNTEN
66
1
40
0.800000
41
0.800000
0
VERTEX
8
2_KUPFERUNTEN
10
53.340000
20
13.970000
0
VERTEX
8
2_KUPFERUNTEN
10
57.785000
20
9.525000
0
SEQEND
0
POLYLINE
8
2_KUPFERUNTEN
66
1
40
0.400000
41
0.400000
0
VERTEX
8
2_KUPFERUNTEN
10
60.325000
20
9.725000
42
1
0
VERTEX
8
2_KUPFERUNTEN
10
60.325000
20
9.325000
42
1
0
VERTEX
8
2_KUPFERUNTEN
10
60.325000
20
9.725000
0
SEQEND
0
POLYLINE
8
2_KUPFERUNTEN
66
1
40
0.400000
41
0.400000
0
VERTEX
8
2_KUPFERUNTEN
10
59.055000
20
8.455000
42
1
0
VERTEX
8
2_KUPFERUNTEN
10
59.055000
20
8.055000
42
1
0
VERTEX
8
2_KUPFERUNTEN
10
59.055000
20
8.455000
0
SEQEND
0
POLYLINE
8
2_KUPFERUNTEN
66
1
40
0.800000
41
0.800000
0
VERTEX
8
2_KUPFERUNTEN
10
60.325000
20
9.525000
0
VERTEX
8
2_KUPFERUNTEN
10
59.055000
20
8.255000
0
SEQEND
0
POLYLINE
8
2_KUPFERUNTEN
66
1
40
0.400000
41
0.400000
0
VERTEX
8
2_KUPFERUNTEN
10
59.055000
20
8.455000
42
1
0
VERTEX
8
2_KUPFERUNTEN
10
59.055000
20
8.055000
42
1
0
VERTEX
8
2_KUPFERUNTEN
10
59.055000
20
8.455000
0
SEQEND
0
POLYLINE
8
2_KUPFERUNTEN
66
1
40
0.400000
41
0.400000
0
VERTEX
8
2_KUPFERUNTEN
10
59.055000
20
5.280000
42
1
0
VERTEX
8
2_KUPFERUNTEN
10
59.055000
20
4.880000
42
1
0
VERTEX
8
2_KUPFERUNTEN
10
59.055000
20
5.280000
0
SEQEND
0
POLYLINE
8
2_KUPFERUNTEN
66
1
40
0.800000
41
0.800000
0
VERTEX
8
2_KUPFERUNTEN
10
59.055000
20
8.255000
0
VERTEX
8
2_KUPFERUNTEN
10
59.055000
20
5.080000
0
SEQEND
0
POLYLINE
8
2_KUPFERUNTEN
66
1
40
0.400000
41
0.400000
0
VERTEX
8
2_KUPFERUNTEN
10
64.770000
20
-6.785000
42
1
0
VERTEX
8
2_KUPFERUNTEN
10
64.770000
20
-7.185000
42
1
0
VERTEX
8
2_KUPFERUNTEN
10
64.770000
20
-6.785000
0
SEQEND
0
POLYLINE
8
2_KUPFERUNTEN
66
1
40
0.400000
41
0.400000
0
VERTEX
8
2_KUPFERUNTEN
10
55.880000
20
-6.785000
42
1
0
VERTEX
8
2_KUPFERUNTEN
10
55.880000
20
-7.185000
42
1
0
VERTEX
8
2_KUPFERUNTEN
10
55.880000
20
-6.785000
0
SEQEND
0
POLYLINE
8
2_KUPFERUNTEN
66
1
40
0.800000
41
0.800000
0
VERTEX
8
2_KUPFERUNTEN
10
64.770000
20
-6.985000
0
VERTEX
8
2_KUPFERUNTEN
10
55.880000
20
-6.985000
0
SEQEND
0
POLYLINE
8
2_KUPFERUNTEN
66
1
40
0.400000
41
0.400000
0
VERTEX
8
2_KUPFERUNTEN
10
64.770000
20
-6.785000
42
1
0
VERTEX
8
2_KUPFERUNTEN
10
64.770000
20
-7.185000
42
1
0
VERTEX
8
2_KUPFERUNTEN
10
64.770000
20
-6.785000
0
SEQEND
0
POLYLINE
8
2_KUPFERUNTEN
66
1
40
0.400000
41
0.400000
0
VERTEX
8
2_KUPFERUNTEN
10
64.770000
20
18.615000
42
1
0
VERTEX
8
2_KUPFERUNTEN
10
64.770000
20
18.215000
42
1
0
VERTEX
8
2_KUPFERUNTEN
10
64.770000
20
18.615000
0
SEQEND
0
POLYLINE
8
2_KUPFERUNTEN
66
1
40
0.800000
41
0.800000
0
VERTEX
8
2_KUPFERUNTEN
10
64.770000
20
-6.985000
0
VERTEX
8
2_KUPFERUNTEN
10
64.770000
20
18.415000
0
SEQEND
0
POLYLINE
8
2_KUPFERUNTEN
66
1
40
0.400000
41
0.400000
0
VERTEX
8
2_KUPFERUNTEN
10
55.880000
20
-4.245000
42
1
0
VERTEX
8
2_KUPFERUNTEN
10
55.880000
20
-4.645000
42
1
0
VERTEX
8
2_KUPFERUNTEN
10
55.880000
20
-4.245000
0
SEQEND
0
POLYLINE
8
2_KUPFERUNTEN
66
1
40
0.400000
41
0.400000
0
VERTEX
8
2_KUPFERUNTEN
10
55.880000
20
-6.150000
42
1
0
VERTEX
8
2_KUPFERUNTEN
10
55.880000
20
-6.550000
42
1
0
VERTEX
8
2_KUPFERUNTEN
10
55.880000
20
-6.150000
0
SEQEND
0
POLYLINE
8
2_KUPFERUNTEN
66
1
40
0.800000
41
0.800000
0
VERTEX
8
2_KUPFERUNTEN
10
55.880000
20
-4.445000
0
VERTEX
8
2_KUPFERUNTEN
10
55.880000
20
-6.350000
0
SEQEND
0
POLYLINE
8
2_KUPFERUNTEN
66
1
40
0.400000
41
0.400000
0
VERTEX
8
2_KUPFERUNTEN
10
55.880000
20
-6.150000
42
1
0
VERTEX
8
2_KUPFERUNTEN
10
55.880000
20
-6.550000
42
1
0
VERTEX
8
2_KUPFERUNTEN
10
55.880000
20
-6.150000
0
SEQEND
0
POLYLINE
8
2_KUPFERUNTEN
66
1
40
0.400000
41
0.400000
0
VERTEX
8
2_KUPFERUNTEN
10
55.880000
20
-6.785000
42
1
0
VERTEX
8
2_KUPFERUNTEN
10
55.880000
20
-7.185000
42
1
0
VERTEX
8
2_KUPFERUNTEN
10
55.880000
20
-6.785000
0
SEQEND
0
POLYLINE
8
2_KUPFERUNTEN
66
1
40
0.800000
41
0.800000
0
VERTEX
8
2_KUPFERUNTEN
10
55.880000
20
-6.350000
0
VERTEX
8
2_KUPFERUNTEN
10
55.880000
20
-6.985000
0
SEQEND
0
POLYLINE
8
2_KUPFERUNTEN
66
1
40
0.400000
41
0.400000
0
VERTEX
8
2_KUPFERUNTEN
10
55.880000
20
-6.785000
42
1
0
VERTEX
8
2_KUPFERUNTEN
10
55.880000
20
-7.185000
42
1
0
VERTEX
8
2_KUPFERUNTEN
10
55.880000
20
-6.785000
0
SEQEND
0
POLYLINE
8
2_KUPFERUNTEN
66
1
40
0.400000
41
0.400000
0
VERTEX
8
2_KUPFERUNTEN
10
43.815000
20
-6.785000
42
1
0
VERTEX
8
2_KUPFERUNTEN
10
43.815000
20
-7.185000
42
1
0
VERTEX
8
2_KUPFERUNTEN
10
43.815000
20
-6.785000
0
SEQEND
0
POLYLINE
8
2_KUPFERUNTEN
66
1
40
0.800000
41
0.800000
0
VERTEX
8
2_KUPFERUNTEN
10
55.880000
20
-6.985000
0
VERTEX
8
2_KUPFERUNTEN
10
43.815000
20
-6.985000
0
SEQEND
0
POLYLINE
8
2_KUPFERUNTEN
66
1
40
0.400000
41
0.400000
0
VERTEX
8
2_KUPFERUNTEN
10
43.815000
20
5.915000
42
1
0
VERTEX
8
2_KUPFERUNTEN
10
43.815000
20
5.515000
42
1
0
VERTEX
8
2_KUPFERUNTEN
10
43.815000
20
5.915000
0
SEQEND
0
POLYLINE
8
2_KUPFERUNTEN
66
1
40
0.400000
41
0.400000
0
VERTEX
8
2_KUPFERUNTEN
10
43.815000
20
-6.785000
42
1
0
VERTEX
8
2_KUPFERUNTEN
10
43.815000
20
-7.185000
42
1
0
VERTEX
8
2_KUPFERUNTEN
10
43.815000
20
-6.785000
0
SEQEND
0
POLYLINE
8
2_KUPFERUNTEN
66
1
40
0.800000
41
0.800000
0
VERTEX
8
2_KUPFERUNTEN
10
43.815000
20
5.715000
0
VERTEX
8
2_KUPFERUNTEN
10
43.815000
20
-6.985000
0
SEQEND
0
POLYLINE
8
2_KUPFERUNTEN
66
1
40
0.400000
41
0.400000
0
VERTEX
8
2_KUPFERUNTEN
10
43.815000
20
-6.785000
42
1
0
VERTEX
8
2_KUPFERUNTEN
10
43.815000
20
-7.185000
42
1
0
VERTEX
8
2_KUPFERUNTEN
10
43.815000
20
-6.785000
0
SEQEND
0
POLYLINE
8
2_KUPFERUNTEN
66
1
40
0.400000
41
0.400000
0
VERTEX
8
2_KUPFERUNTEN
10
27.940000
20
-6.785000
42
1
0
VERTEX
8
2_KUPFERUNTEN
10
27.940000
20
-7.185000
42
1
0
VERTEX
8
2_KUPFERUNTEN
10
27.940000
20
-6.785000
0
SEQEND
0
POLYLINE
8
2_KUPFERUNTEN
66
1
40
0.800000
41
0.800000
0
VERTEX
8
2_KUPFERUNTEN
10
43.815000
20
-6.985000
0
VERTEX
8
2_KUPFERUNTEN
10
27.940000
20
-6.985000
0
SEQEND
0
POLYLINE
8
2_KUPFERUNTEN
66
1
40
0.400000
41
0.400000
0
VERTEX
8
2_KUPFERUNTEN
10
27.940000
20
-6.785000
42
1
0
VERTEX
8
2_KUPFERUNTEN
10
27.940000
20
-7.185000
42
1
0
VERTEX
8
2_KUPFERUNTEN
10
27.940000
20
-6.785000
0
SEQEND
0
POLYLINE
8
2_KUPFERUNTEN
66
1
40
0.400000
41
0.400000
0
VERTEX
8
2_KUPFERUNTEN
10
25.400000
20
-4.245000
42
1
0
VERTEX
8
2_KUPFERUNTEN
10
25.400000
20
-4.645000
42
1
0
VERTEX
8
2_KUPFERUNTEN
10
25.400000
20
-4.245000
0
SEQEND
0
POLYLINE
8
2_KUPFERUNTEN
66
1
40
0.800000
41
0.800000
0
VERTEX
8
2_KUPFERUNTEN
10
27.940000
20
-6.985000
0
VERTEX
8
2_KUPFERUNTEN
10
25.400000
20
-4.445000
0
SEQEND
0
POLYLINE
8
2_KUPFERUNTEN
66
1
40
0.400000
41
0.400000
0
VERTEX
8
2_KUPFERUNTEN
10
25.400000
20
-4.245000
42
1
0
VERTEX
8
2_KUPFERUNTEN
10
25.400000
20
-4.645000
42
1
0
VERTEX
8
2_KUPFERUNTEN
10
25.400000
20
-4.245000
0
SEQEND
0
POLYLINE
8
2_KUPFERUNTEN
66
1
40
0.400000
41
0.400000
0
VERTEX
8
2_KUPFERUNTEN
10
25.400000
20
16.075000
42
1
0
VERTEX
8
2_KUPFERUNTEN
10
25.400000
20
15.675000
42
1
0
VERTEX
8
2_KUPFERUNTEN
10
25.400000
20
16.075000
0
SEQEND
0
POLYLINE
8
2_KUPFERUNTEN
66
1
40
0.800000
41
0.800000
0
VERTEX
8
2_KUPFERUNTEN
10
25.400000
20
-4.445000
0
VERTEX
8
2_KUPFERUNTEN
10
25.400000
20
15.875000
0
SEQEND
0
POLYLINE
8
23_UMRISS
66
1
40
0.150000
41
0.150000
0
VERTEX
8
23_UMRISS
10
17.780000
20
27.380000
42
1
0
VERTEX
8
23_UMRISS
10
17.780000
20
27.230000
42
1
0
VERTEX
8
23_UMRISS
10
17.780000
20
27.380000
0
SEQEND
0
POLYLINE
8
23_UMRISS
66
1
40
0.150000
41
0.150000
0
VERTEX
8
23_UMRISS
10
17.780000
20
-15.800000
42
1
0
VERTEX
8
23_UMRISS
10
17.780000
20
-15.950000
42
1
0
VERTEX
8
23_UMRISS
10
17.780000
20
-15.800000
0
SEQEND
0
POLYLINE
8
23_UMRISS
66
1
40
0.300000
41
0.300000
0
VERTEX
8
23_UMRISS
10
17.780000
20
27.305000
0
VERTEX
8
23_UMRISS
10
17.780000
20
-15.875000
0
SEQEND
0
POLYLINE
8
23_UMRISS
66
1
40
0.150000
41
0.150000
0
VERTEX
8
23_UMRISS
10
17.780000
20
-15.800000
42
1
0
VERTEX
8
23_UMRISS
10
17.780000
20
-15.950000
42
1
0
VERTEX
8
23_UMRISS
10
17.780000
20
-15.800000
0
SEQEND
0
POLYLINE
8
23_UMRISS
66
1
40
0.150000
41
0.150000
0
VERTEX
8
23_UMRISS
10
74.930000
20
-15.800000
42
1
0
VERTEX
8
23_UMRISS
10
74.930000
20
-15.950000
42
1
0
VERTEX
8
23_UMRISS
10
74.930000
20
-15.800000
0
SEQEND
0
POLYLINE
8
23_UMRISS
66
1
40
0.300000
41
0.300000
0
VERTEX
8
23_UMRISS
10
17.780000
20
-15.875000
0
VERTEX
8
23_UMRISS
10
74.930000
20
-15.875000
0
SEQEND
0
POLYLINE
8
23_UMRISS
66
1
40
0.150000
41
0.150000
0
VERTEX
8
23_UMRISS
10
74.930000
20
-15.800000
42
1
0
VERTEX
8
23_UMRISS
10
74.930000
20
-15.950000
42
1
0
VERTEX
8
23_UMRISS
10
74.930000
20
-15.800000
0
SEQEND
0
POLYLINE
8
23_UMRISS
66
1
40
0.150000
41
0.150000
0
VERTEX
8
23_UMRISS
10
74.930000
20
27.380000
42
1
0
VERTEX
8
23_UMRISS
10
74.930000
20
27.230000
42
1
0
VERTEX
8
23_UMRISS
10
74.930000
20
27.380000
0
SEQEND
0
POLYLINE
8
23_UMRISS
66
1
40
0.300000
41
0.300000
0
VERTEX
8
23_UMRISS
10
74.930000
20
-15.875000
0
VERTEX
8
23_UMRISS
10
74.930000
20
27.305000
0
SEQEND
0
POLYLINE
8
23_UMRISS
66
1
40
0.150000
41
0.150000
0
VERTEX
8
23_UMRISS
10
74.930000
20
27.380000
42
1
0
VERTEX
8
23_UMRISS
10
74.930000
20
27.230000
42
1
0
VERTEX
8
23_UMRISS
10
74.930000
20
27.380000
0
SEQEND
0
POLYLINE
8
23_UMRISS
66
1
40
0.150000
41
0.150000
0
VERTEX
8
23_UMRISS
10
17.780000
20
27.380000
42
1
0
VERTEX
8
23_UMRISS
10
17.780000
20
27.230000
42
1
0
VERTEX
8
23_UMRISS
10
17.780000
20
27.380000
0
SEQEND
0
POLYLINE
8
23_UMRISS
66
1
40
0.300000
41
0.300000
0
VERTEX
8
23_UMRISS
10
74.930000
20
27.305000
0
VERTEX
8
23_UMRISS
10
17.780000
20
27.305000
0
SEQEND
0
POLYLINE
8
23_UMRISS
66
1
40
0.150000
41
0.150000
0
VERTEX
8
23_UMRISS
10
-41.910000
20
14.045000
42
1
0
VERTEX
8
23_UMRISS
10
-41.910000
20
13.895000
42
1
0
VERTEX
8
23_UMRISS
10
-41.910000
20
14.045000
0
SEQEND
0
POLYLINE
8
23_UMRISS
66
1
40
0.150000
41
0.150000
0
VERTEX
8
23_UMRISS
10
-41.275000
20
14.045000
42
1
0
VERTEX
8
23_UMRISS
10
-41.275000
20
13.895000
42
1
0
VERTEX
8
23_UMRISS
10
-41.275000
20
14.045000
0
SEQEND
0
POLYLINE
8
23_UMRISS
66
1
40
0.300000
41
0.300000
0
VERTEX
8
23_UMRISS
10
-41.910000
20
13.970000
0
VERTEX
8
23_UMRISS
10
-41.275000
20
13.970000
0
SEQEND
0
POLYLINE
8
23_UMRISS
66
1
40
0.150000
41
0.150000
0
VERTEX
8
23_UMRISS
10
-41.275000
20
14.045000
42
1
0
VERTEX
8
23_UMRISS
10
-41.275000
20
13.895000
42
1
0
VERTEX
8
23_UMRISS
10
-41.275000
20
14.045000
0
SEQEND
0
POLYLINE
8
23_UMRISS
66
1
40
0.150000
41
0.150000
0
VERTEX
8
23_UMRISS
10
-41.910000
20
14.045000
42
1
0
VERTEX
8
23_UMRISS
10
-41.910000
20
13.895000
42
1
0
VERTEX
8
23_UMRISS
10
-41.910000
20
14.045000
0
SEQEND
0
POLYLINE
8
23_UMRISS
66
1
40
0.300000
41
0.300000
0
VERTEX
8
23_UMRISS
10
-41.275000
20
13.970000
0
VERTEX
8
23_UMRISS
10
-41.910000
20
13.970000
0
SEQEND
0
POLYLINE
8
24_BOHRLOECHER
66
1
40
0.425000
41
0.425000
0
VERTEX
8
24_BOHRLOECHER
10
39.370000
20
25.612500
42
1
0
VERTEX
8
24_BOHRLOECHER
10
39.370000
20
25.187500
42
1
0
VERTEX
8
24_BOHRLOECHER
10
39.370000
20
25.612500
0
SEQEND
0
POLYLINE
8
24_BOHRLOECHER
66
1
40
0.425000
41
0.425000
0
VERTEX
8
24_BOHRLOECHER
10
49.530000
20
25.612500
42
1
0
VERTEX
8
24_BOHRLOECHER
10
49.530000
20
25.187500
42
1
0
VERTEX
8
24_BOHRLOECHER
10
49.530000
20
25.612500
0
SEQEND
0
POLYLINE
8
24_BOHRLOECHER
66
1
40
0.550000
41
0.550000
0
VERTEX
8
24_BOHRLOECHER
10
58.420000
20
24.405000
42
1
0
VERTEX
8
24_BOHRLOECHER
10
58.420000
20
23.855000
42
1
0
VERTEX
8
24_BOHRLOECHER
10
58.420000
20
24.405000
0
SEQEND
0
POLYLINE
8
24_BOHRLOECHER
66
1
40
0.550000
41
0.550000
0
VERTEX
8
24_BOHRLOECHER
10
55.880000
20
14.245000
42
1
0
VERTEX
8
24_BOHRLOECHER
10
55.880000
20
13.695000
42
1
0
VERTEX
8
24_BOHRLOECHER
10
55.880000
20
14.245000
0
SEQEND
0
POLYLINE
8
24_BOHRLOECHER
66
1
40
0.550000
41
0.550000
0
VERTEX
8
24_BOHRLOECHER
10
53.340000
20
24.405000
42
1
0
VERTEX
8
24_BOHRLOECHER
10
53.340000
20
23.855000
42
1
0
VERTEX
8
24_BOHRLOECHER
10
53.340000
20
24.405000
0
SEQEND
0
POLYLINE
8
24_BOHRLOECHER
66
1
40
0.425000
41
0.425000
0
VERTEX
8
24_BOHRLOECHER
10
55.880000
20
-4.232500
42
1
0
VERTEX
8
24_BOHRLOECHER
10
55.880000
20
-4.657500
42
1
0
VERTEX
8
24_BOHRLOECHER
10
55.880000
20
-4.232500
0
SEQEND
0
POLYLINE
8
24_BOHRLOECHER
66
1
40
0.425000
41
0.425000
0
VERTEX
8
24_BOHRLOECHER
10
55.880000
20
5.927500
42
1
0
VERTEX
8
24_BOHRLOECHER
10
55.880000
20
5.502500
42
1
0
VERTEX
8
24_BOHRLOECHER
10
55.880000
20
5.927500
0
SEQEND
0
POLYLINE
8
24_BOHRLOECHER
66
1
40
0.500000
41
0.500000
0
VERTEX
8
24_BOHRLOECHER
10
64.770000
20
-6.735000
42
1
0
VERTEX
8
24_BOHRLOECHER
10
64.770000
20
-7.235000
42
1
0
VERTEX
8
24_BOHRLOECHER
10
64.770000
20
-6.735000
0
SEQEND
0
POLYLINE
8
24_BOHRLOECHER
66
1
40
0.500000
41
0.500000
0
VERTEX
8
24_BOHRLOECHER
10
69.850000
20
-6.735000
42
1
0
VERTEX
8
24_BOHRLOECHER
10
69.850000
20
-7.235000
42
1
0
VERTEX
8
24_BOHRLOECHER
10
69.850000
20
-6.735000
0
SEQEND
0
POLYLINE
8
24_BOHRLOECHER
66
1
40
0.500000
41
0.500000
0
VERTEX
8
24_BOHRLOECHER
10
27.940000
20
-6.735000
42
1
0
VERTEX
8
24_BOHRLOECHER
10
27.940000
20
-7.235000
42
1
0
VERTEX
8
24_BOHRLOECHER
10
27.940000
20
-6.735000
0
SEQEND
0
POLYLINE
8
24_BOHRLOECHER
66
1
40
0.500000
41
0.500000
0
VERTEX
8
24_BOHRLOECHER
10
22.860000
20
-6.735000
42
1
0
VERTEX
8
24_BOHRLOECHER
10
22.860000
20
-7.235000
42
1
0
VERTEX
8
24_BOHRLOECHER
10
22.860000
20
-6.735000
0
SEQEND
0
POLYLINE
8
24_BOHRLOECHER
66
1
40
0.500000
41
0.500000
0
VERTEX
8
24_BOHRLOECHER
10
64.770000
20
18.665000
42
1
0
VERTEX
8
24_BOHRLOECHER
10
64.770000
20
18.165000
42
1
0
VERTEX
8
24_BOHRLOECHER
10
64.770000
20
18.665000
0
SEQEND
0
POLYLINE
8
24_BOHRLOECHER
66
1
40
0.500000
41
0.500000
0
VERTEX
8
24_BOHRLOECHER
10
69.850000
20
18.665000
42
1
0
VERTEX
8
24_BOHRLOECHER
10
69.850000
20
18.165000
42
1
0
VERTEX
8
24_BOHRLOECHER
10
69.850000
20
18.665000
0
SEQEND
0
POLYLINE
8
24_BOHRLOECHER
66
1
40
0.500000
41
0.500000
0
VERTEX
8
24_BOHRLOECHER
10
43.815000
20
5.965000
42
1
0
VERTEX
8
24_BOHRLOECHER
10
43.815000
20
5.465000
42
1
0
VERTEX
8
24_BOHRLOECHER
10
43.815000
20
5.965000
0
SEQEND
0
POLYLINE
8
24_BOHRLOECHER
66
1
40
0.500000
41
0.500000
0
VERTEX
8
24_BOHRLOECHER
10
48.895000
20
5.965000
42
1
0
VERTEX
8
24_BOHRLOECHER
10
48.895000
20
5.465000
42
1
0
VERTEX
8
24_BOHRLOECHER
10
48.895000
20
5.965000
0
SEQEND
0
POLYLINE
8
24_BOHRLOECHER
66
1
40
0.500000
41
0.500000
0
VERTEX
8
24_BOHRLOECHER
10
25.400000
20
16.125000
42
1
0
VERTEX
8
24_BOHRLOECHER
10
25.400000
20
15.625000
42
1
0
VERTEX
8
24_BOHRLOECHER
10
25.400000
20
16.125000
0
SEQEND
0
POLYLINE
8
24_BOHRLOECHER
66
1
40
0.500000
41
0.500000
0
VERTEX
8
24_BOHRLOECHER
10
25.400000
20
21.205000
42
1
0
VERTEX
8
24_BOHRLOECHER
10
25.400000
20
20.705000
42
1
0
VERTEX
8
24_BOHRLOECHER
10
25.400000
20
21.205000
0
SEQEND
0
POLYLINE
8
24_BOHRLOECHER
66
1
40
0.450000
41
0.450000
0
VERTEX
8
24_BOHRLOECHER
10
61.595000
20
5.305000
42
1
0
VERTEX
8
24_BOHRLOECHER
10
61.595000
20
4.855000
42
1
0
VERTEX
8
24_BOHRLOECHER
10
61.595000
20
5.305000
0
SEQEND
0
POLYLINE
8
24_BOHRLOECHER
66
1
40
0.450000
41
0.450000
0
VERTEX
8
24_BOHRLOECHER
10
59.055000
20
5.305000
42
1
0
VERTEX
8
24_BOHRLOECHER
10
59.055000
20
4.855000
42
1
0
VERTEX
8
24_BOHRLOECHER
10
59.055000
20
5.305000
0
SEQEND
0
POLYLINE
8
24_BOHRLOECHER
66
1
40
0.650000
41
0.650000
0
VERTEX
8
24_BOHRLOECHER
10
60.325000
20
9.850000
42
1
0
VERTEX
8
24_BOHRLOECHER
10
60.325000
20
9.200000
42
1
0
VERTEX
8
24_BOHRLOECHER
10
60.325000
20
9.850000
0
SEQEND
0
POLYLINE
8
24_BOHRLOECHER
66
1
40
0.650000
41
0.650000
0
VERTEX
8
24_BOHRLOECHER
10
57.785000
20
9.850000
42
1
0
VERTEX
8
24_BOHRLOECHER
10
57.785000
20
9.200000
42
1
0
VERTEX
8
24_BOHRLOECHER
10
57.785000
20
9.850000
0
SEQEND
0
POLYLINE
8
24_BOHRLOECHER
66
1
40
0.650000
41
0.650000
0
VERTEX
8
24_BOHRLOECHER
10
55.245000
20
9.850000
42
1
0
VERTEX
8
24_BOHRLOECHER
10
55.245000
20
9.200000
42
1
0
VERTEX
8
24_BOHRLOECHER
10
55.245000
20
9.850000
0
SEQEND
0
POLYLINE
8
24_BOHRLOECHER
66
1
40
0.400000
41
0.400000
0
VERTEX
8
24_BOHRLOECHER
10
48.260000
20
22.425000
42
1
0
VERTEX
8
24_BOHRLOECHER
10
48.260000
20
22.025000
42
1
0
VERTEX
8
24_BOHRLOECHER
10
48.260000
20
22.425000
0
SEQEND
0
POLYLINE
8
24_BOHRLOECHER
66
1
40
0.400000
41
0.400000
0
VERTEX
8
24_BOHRLOECHER
10
45.720000
20
22.425000
42
1
0
VERTEX
8
24_BOHRLOECHER
10
45.720000
20
22.025000
42
1
0
VERTEX
8
24_BOHRLOECHER
10
45.720000
20
22.425000
0
SEQEND
0
POLYLINE
8
24_BOHRLOECHER
66
1
40
0.400000
41
0.400000
0
VERTEX
8
24_BOHRLOECHER
10
43.180000
20
22.425000
42
1
0
VERTEX
8
24_BOHRLOECHER
10
43.180000
20
22.025000
42
1
0
VERTEX
8
24_BOHRLOECHER
10
43.180000
20
22.425000
0
SEQEND
0
POLYLINE
8
24_BOHRLOECHER
66
1
40
0.400000
41
0.400000
0
VERTEX
8
24_BOHRLOECHER
10
40.640000
20
22.425000
42
1
0
VERTEX
8
24_BOHRLOECHER
10
40.640000
20
22.025000
42
1
0
VERTEX
8
24_BOHRLOECHER
10
40.640000
20
22.425000
0
SEQEND
0
POLYLINE
8
24_BOHRLOECHER
66
1
40
0.400000
41
0.400000
0
VERTEX
8
24_BOHRLOECHER
10
40.640000
20
14.805000
42
1
0
VERTEX
8
24_BOHRLOECHER
10
40.640000
20
14.405000
42
1
0
VERTEX
8
24_BOHRLOECHER
10
40.640000
20
14.805000
0
SEQEND
0
POLYLINE
8
24_BOHRLOECHER
66
1
40
0.400000
41
0.400000
0
VERTEX
8
24_BOHRLOECHER
10
43.180000
20
14.805000
42
1
0
VERTEX
8
24_BOHRLOECHER
10
43.180000
20
14.405000
42
1
0
VERTEX
8
24_BOHRLOECHER
10
43.180000
20
14.805000
0
SEQEND
0
POLYLINE
8
24_BOHRLOECHER
66
1
40
0.400000
41
0.400000
0
VERTEX
8
24_BOHRLOECHER
10
45.720000
20
14.805000
42
1
0
VERTEX
8
24_BOHRLOECHER
10
45.720000
20
14.405000
42
1
0
VERTEX
8
24_BOHRLOECHER
10
45.720000
20
14.805000
0
SEQEND
0
POLYLINE
8
24_BOHRLOECHER
66
1
40
0.400000
41
0.400000
0
VERTEX
8
24_BOHRLOECHER
10
48.260000
20
14.805000
42
1
0
VERTEX
8
24_BOHRLOECHER
10
48.260000
20
14.405000
42
1
0
VERTEX
8
24_BOHRLOECHER
10
48.260000
20
14.805000
0
SEQEND
0
POLYLINE
8
24_BOHRLOECHER
66
1
40
0.500000
41
0.500000
0
VERTEX
8
24_BOHRLOECHER
10
34.290000
20
25.650000
42
1
0
VERTEX
8
24_BOHRLOECHER
10
34.290000
20
25.150000
42
1
0
VERTEX
8
24_BOHRLOECHER
10
34.290000
20
25.650000
0
SEQEND
0
POLYLINE
8
24_BOHRLOECHER
66
1
40
0.500000
41
0.500000
0
VERTEX
8
24_BOHRLOECHER
10
34.290000
20
20.570000
42
1
0
VERTEX
8
24_BOHRLOECHER
10
34.290000
20
20.070000
42
1
0
VERTEX
8
24_BOHRLOECHER
10
34.290000
20
20.570000
0
SEQEND
0
ENDSEC
0
EOF
